Oops, an error
Loading. Please wait.

Love And Mercy Bass Tab

40 views 6 this week
no commentswrite comment
1 2 3 4 5
3 more votes to show rating
add to favorites
launch autoscroll
font size
0
reset
guitar tuner
Autoscroll
slow
fast
+/-
esc
set tempo
stop
Help us to improve Ultimate-Guitar.com Take our survey!
×
Author
Difficulty
novice
[Verse 1]

G|--------------|-------------|-------------|-------------|
D|--------------|-------------|-------------|-------------|
A|--------------|-------------|-5---5-4---4-|-2---2-------|
E|--5---5-4---4-|-2---2-0---0-|-------------|-------0--0--|


G|--------------|-------------|-------------|-------------|
D|--------------|-------------|-------------|-------------|
A|--------------|-------------|-5---5-4---4-|-2---2-------|
E|--5---5-4---4-|-2---2-0---0-|-------------|-------0--0--|


[Chorus]

G|---------------|----------------|----------------|----------------| (x2)
D|---------------|----------------|----------------|----------------|
A|---------------|----------------|----------------|----------------|
E|--5------------|----------------|----------------|----------------|


[Verse 2]

G|--------------|-------------|-------------|-------------|
D|--------------|-------------|-------------|-------------|
A|--------------|-------------|-5---5-4---4-|-2---2-------|
E|--5---5-4---4-|-2---2-0---0-|-------------|-------0--0--|


G|--------------|-------------|-------------|-------------|
D|--------------|-------------|-------------|-------------|
A|--------------|-------------|-5---5-4---4-|-2---2-------|
E|--5---5-4---4-|-2---2-0---0-|-------------|-------0--0--|


[Chorus]

G|----------------|----------------|----------------|----------------| (x2)
D|----------------|----------------|----------------|----------------|
A|----------------|----------------|----------------|----------------|
E|--5-------------|----------------|----------------|----------------|


[Verse 3]

G|----------|----------|-------------|-------------|
D|----------|----------|-------------|-------------|
A|----------|----------|-5---5-4---4-|-2---2-------|
E|--5----4--|--2----0--|-------------|-------0--0--|


G|--------------|-------------|-------------|-------------|------------|
D|--------------|-------------|-------------|-------------|------------|
A|--------------|-------------|-5---5-4---4-|-2---2-------|------------|
E|--5---5-4---4-|-2---2-0---0-|-------------|-------0--0--|------------|


[Instrumental]

G|----------------|----------------|----------------|----------------|
D|--7-------------|--5-------------|--4-------------|--3-------------|
A|----------------|----------------|----------------|----------------|
E|----------------|----------------|----------------|----------------|


G|----------------|----------------|----------------|----------------|
D|----------------|----------------|----------------|----------------|
A|--7-------------|--6-------------|--5-------------|----------------|
E|----------------|----------------|----------------|--0-------------|

 (A cappella, keyboard)
G|----------------|----------------|----------------|----------------| (x3)
D|----------------|----------------|----------------|----------------|
A|----------------|----------------|----------------|----------------|
E|----------------|----------------|----------------|----------------|


[Outro]

G|----------------|----------------|----------------|-----------------| 
D|----------------|----------------|----------------|-------4-2-2-----|
A|----------------|----------------|----------------|-------------4-2-|
E|--5-------------|----------------|----------------|-----------------|


G|---------|----------|----------|-------------|
D|---------|----------|----------|------2h4p2--|
A|---------|----------|--5----4--|--2----------|
E|-5----4--|--2----0--|----------|-------------|


G|----------|----------|----------|---------| (x2)
D|----------|----------|----------|---------|
A|----------|----------|--5----4--|--2------|
E|--5----4--|--2----0--|----------|------0--|



****************************

| h : hammer-on
| p : pull-off

****************************

in regular sequence!
Suggest correction
Give kudos to tab author, rate the tab!
1 2 3 4 5
comments
print report bad tab
guest
You may want to rate the tab now too:
select rating
Wanna post a correction for this tab? Suggest correction