Oops, an error
Loading. Please wait.

Sum Me Up Tab

version 1
version 1

Whole song

11,024 views 3 this week
2 commentsread comments
1 2 3 4 5
excellent!
x 15
add to favorites
launch autoscroll
font size
0
reset
how to read this tab
guitar tuner
Autoscroll
slow
fast
+/-
esc
set tempo
stop
Help us to improve Ultimate-Guitar.com Take our survey!
×
Author
Capo
2nd fret
Capo on 2

This is my first tab, so I hope you like it. :) if so, RATE WELL.
____________________________________________________________________________

Intro:

E]------------|------------|------------|--------|
B]-3-5-5-0-0-0|-3-5-5-0-0-0|-3-5-5-8-7-7|-3-5-5-0|
G]------------|------------|------------|--------|
D]------------|------------|------------|--------|
A]-2-3-3------|-2-3-3------|-2-3-3-6-5-5|-2-3-3--|
E]-------3-3-3|-------3-3-3|------------|-------3|

All Verses:

E]------------|-----------|-----------|--------|
B]-3-5-5-0-0-0|3-5-5-0-0-0|3-5-5-0-0-0|--5-5-0-|
G]------------|-----------|-----------|--------|
D]------------|-----------|-----------|--------|
A]-2-3-3------|2-3-3------|2-3-3------|-2-3-3--|
E]-------3-3-3|------3-3-3|------3-3-3|------3-|

Chorus: C, Em, G, D

Final Verse:

E]------------|------------|------------|--------|
B]-3-5-5-0-0-0|-3-5-5-0-0-0|-3-5-5-8-7-7|-3-5-5-0|
G]------------|------------|------------|--------|
D]------------|------------|------------|--------|
A]-2-3-3------|-2-3-3------|-2-3-3-6-5-5|-2-3-3--|
E]-------3-3-3|-2-3-3------|------------|-------3|

Good luck. :)


Suggest correction
comments
print report bad tab
2 comments total.
0 reply
rubyrod7 317 wrote on February 28 2012, 09:05 pm

The chorus should actually be C, G, Em, D. I believe the D is played (x57700). Other than that this is spot on. Thanks

0 reply
rubyrod7 317 wrote on February 28 2012, 09:15 pm

Also, the outro is the only part that uses this part


E]------------|------------|------------|--------|
B]-3-5-5-0-0-0|-3-5-5-0-0-0|-3-5-5-8-7-7|-3-5-5-0|
G]------------|------------|------------|--------|
D ------------|------------|------------|--------|
A]-2-3-3------|-2-3-3------|-2-3-3-7-5-5|-2-3-3--|
E]-------3-3-3|-2-3-3------|------------|-------3|


Notice i changed the plucking from 6 on the A string and 8 on the B string to 7 on the A string and 8 on the B string. If you look closely in the video that's what he's playing

guest
You may want to rate the tab now too:
select rating
Wanna post a correction for this tab? Suggest correction