Oops, an error
Loading. Please wait.

Brace Yourself bass

205 views 1 this week
no commentswrite comment
1 2 3 4 5
2 more votes to show rating
add to favorites
×
Save as Personal and add changes to this tab that will be seen only by you. Learn more ›
×
You can save this tab as Personal to edit and correct it or add notes. All changes will be seen only by you. Learn more »
launch autoscroll
font size
0
reset
guitar tuner
edit
Autoscroll
slow
fast
+/-
esc
set tempo
stop
Author
Difficulty
Artist:Brides of Destruction
Song:Brace Yourself
Album:Here Come the Brides
Bassist:Nikki Sixx
Tabber:Dev Fuld

I love this song. It kicks ass, and this tab should be perfect or close to it.

Key:
x = times a number
b = bend

If you want to play it, this is the guitar intro:
G:-------------------------------------------------------------------------------|
D:-------------------------------------------------------------------------------|
A:----7-8-7-----7-8-7-----7-8-7-----7-8-7-----7-8-7-----7-8-7-----7-8-7-----7-8-7|
E:5-5-------5-5-------8-8-------8-8-------7-7-------6-6-------5-5-------5-5------|

Bass intro/verse
G:-----------------|
D:-----------------|
A:-----------------|
E:5x16-8x16-7x8-6x8|

Chorus
Is the same as the verse but at the end add in...
G:---------------------------|
D:----7b-----7b-----7b-----7b|
A:0-0----0-0----0-0----0-0---|
E:---------------------------|

Another part (usually after the chorus)
G:---------------|
D:---------------|
A:---------------|
E:5x8-3x8-1x8-0x8| you'll repeat it afew times

End
G:------------------|
D:------------------|
A:------------------|
E:5-5--8-8--7-7--6-6|

That's it, and this kicks some serious ass, so give it a try. You figure out the order your-self. 
shouldn't be too hard. Any questions or comments then e-mail me at rocklvson@yahoo.com
Suggest correction
Creating personal tab
Creating personal tab
You can edit any tab online and save it as your Personal.

You can edit, replace or remove any tab part or add personal notes – all changes will be seen only by you.

Personal tabs can be accessed anytime from any device, even offline.
Learn more »
Give kudos to tab author, rate the tab!
1 2 3 4 5
comments
print report bad tab
guest
You may want to rate the tab now too:
select rating
Wanna post a correction for this tab? Suggest correction