Oops, an error
Loading. Please wait.

Shut The Fuck Up Tab

version 2
version 2

Whole song

1,118 views 1 this week
3 commentsread comments
1 2 3 4 5
1 last vote to show rating
add to favorites
×
Save as Personal and add changes to this tab that will be seen only by you. Learn more ›
×
You can save this tab as Personal to edit and correct it or add notes. All changes will be seen only by you. Learn more »
save as personal
new!
launch autoscroll
font size
0
reset
how to read this tab
guitar tuner
Autoscroll
slow
fast
+/-
esc
set tempo
stop
Author
-------------------------------------------------------------------------------
                SHUT THE F*CK UP- Brides Of Destruction
-------------------------------------------------------------------------------
Tabbed by:SquirrelMasta225
Email:Sixx4President@aol.com

Tuning: Standard (EBGDAE)<--Low To High

Intro/Main Riff
e|-------------------------------------------|(x2)
B|-------------------------------------------|
G|-------------------------------------------|
D|-7777777777777/8\7777777777777/8-----------|
A|-5555555555555/6\5555555555555/6-----------|
E|-------------------------------------------|

Verse(P.M all)
e|----------------------------------------------------|
B|----------------------------------------------------|
G|----------------------------------------------------|
D|-222222222222222444444444444444222222222222222-2--*-|
A|-000000000000000222222222222222222222222222222-0--*-|
E|----------------------------------------------------|

Lead-Up(p.1 "I don't wanna be the tolerant"..etc)
e|-----------------------------------------------|(x2)
B|-----------------------------------------------|
G|-----------------------------------------------|
D|-777777777777/8\777777777777-------------------|
A|-555555555555/6\555555555555-------------------|
E|-----------------------------------------------|

Lead-Up P.2("whooooaaoooo.Doesn't really matter...")
e|-----------------------------------------------|
B|-----------------------------------------------|
G|-----------------------------------------------|
D|-5555777799999999-(x3)-5555777722222-----------|
A|-3333555577777777------3333555500000-----------|
E|-----------------------------------------------|


SOLO(Rhythm)
e|--------------------------------------------|(listen to song for # times)
B|--------------------------------------------|
G|--------------------------------------------|
D|--7-7-7-7/8\7-7-7-7/8\7---------------------|
A|--5-5-5-5/6\5-5-5-5/6\5---------------------|
E|--------------------------------------------|

Outro
e|----------------------------------------------------------------
B|----------------------------------------------------------------
G|----------------------------------------------------------------
D|-5555777799999999-(x6)---55557777555577775555777722222--7777\---
A|-3333555577777777--------33335555333355553333555500000--5555\---
E|----------------------------------------------------------------

| /  slide up
| \  slide down
| h  hammer-on
| p  pull-off
| ~  vibrato
| *  pickscrape
| x  Mute note

There ya go....any questions or requests, email me....
I'll tab the lead solo part later so check back for that too.

Peace,
SquirrelMasta225
Suggest correction
Give kudos to tab author, rate the tab!
1 2 3 4 5
comments
print report bad tab
3 comments total.
0 reply
SquirrelMasta 70 Jun 23, 2004 08:00 PM

The lead to the chorus is wrong....

E|---------------------------------------------|
B|---------------------------------------------|
G|3-3-3-3-5-5-5-5-10-10-10-10-7-7-7-7-7-7-7-7--|
D|3-3-3-3-5-5-5-5-10-10-10-10-7-7-7-7-7-7-7-7--|
A|1-1-1-1-3-3-3-3-8--8--8--8--5-5-5-5-5-5-5-5--|
E|---------------------------------------------|

And so is the end.....


G|3-3-3-3-3-3-3-3-10-10-10-10-10-10-10-10-5-5-5-5-5-5-5-5-222222222-
D|3-3-3-3-3-3-3-3-10-10-10-10-10-10-10-10-5-5-5-5-5-5-5-5-222222222-
A|1-1-1-1-1-1-1-1-8--8--8--8--8--8--8--8--3-3-3-3-3-3-3-3-000000000-

G|--7-7-7-7--|
D|--7-7-7-7--|
A|--5-5-5-5--|

SM225

0 reply
unwanted_child 210 Jun 27, 2004 08:00 PM

lol you got yours wrong 2? lol heh

0 reply
unwanted_child 210 Jul 12, 2004 08:00 PM

its ok lol. ty

guest
You may want to rate the tab now too:
select rating
Wanna post a correction for this tab? Suggest correction