Oops, an error
Loading. Please wait.

Go Slow Tab

425 views 1 this week
no commentswrite comment
1 2 3 4 5
please rate
add to favorites
launch autoscroll
font size
0
reset
how to read this tab
guitar tuner
Autoscroll
slow
fast
+/-
esc
set tempo
stop
Help us to improve Ultimate-Guitar.com Take our survey!
×
Author
Artist: Brigade
Song: Go Slow
Album: Safe Hands (EP)

Tabbed by: John O'Nolan, Copyright 2005, All rights reserved.

Tuning: E - ( E/A/D/G/B/e )
Effects: none

p  = pull
h  = hammer
/  = slide up
\\ = slide down
~  = let ring




-=> 1st Guitar Part - Will Simpson <=-



=>INTRO<= (Palm Mute)
e |------------------|----------------------|
B |------------------|----------------------|
G |----9--9--9--9----|----14--14--14--14----|
D |----9--9--9--9----|----14--14--14--14----|
A |----7--6--7--6----|----12--11--12--11----| Times 2
E |------------------|----------------------|
        No lyrics


=>VERSE<= (Palm mute)
e |------------------|----------------------|
B |------------------|----------------------|
G |----9--9--9--9----|----14--14--14--14----|
D |----9--9--9--9----|----14--14--14--14----|
A |----7--6--7--6----|----12--11--12--11----| Times 2
E |------------------|----------------------|
    1st)Days lost...
    2nd)Took My...

=>VERSE<= (NO palm mute)
e |------------------|----------------------|
B |------------------|----------------------|
G |----9--9--9--9----|----14--14--14--14----|
D |----9--9--9--9----|----14--14--14--14----|
A |----7--6--7--6----|----12--11--12--11----| Times 2
E |----0--0--0--0----|----0---0---0---0-----|
    1st)No lyrics
    2nd)Layed down...


=>PRE CHORUS<=
e |------------------|----------------------|
B |------------------|----------------------|
G |----9--9--9--9----|----14--14--14--16----|
D |----9--9--9--9----|----14--14--14--16----|
A |----7--6--7--6----|----12--11--12--14----|
E |----0--0--0--0----|----0---0---0---0-----|
        If I could...


=>CHORUS<=
e |------------------|----------------------|-------|
B |------------------|----------------------|-------|
G |----9--9--9--16---|----14--14--16--16----|-14-13-|
D |----9--9--9--16---|----14--14--16--16----|-14-13-|
A |----7--7--6--14---|----12--11--14--14----|-12-11-|
E |------------------|----------------------|-------|
        Straight to my heart...

=>CHORUS<=
e |------------------|----------------------|-------|
B |------------------|----------------------|-------|
G |----9--9--9--16---|----14--14--16--16----|-14-13-|
D |----9--9--9--16---|----14--14--16--16----|-14-13-|
A |----7--7--6--14---|----12--11--14--14----|-12-11-|
E |------------------|----------------------|-------|
        Taking apart...


=>VERSE<= (NO palm mute)
e |------------------|----------------------|
B |------------------|----------------------|
G |----9--9--9--9----|----14--14--14--14----|
D |----9--9--9--9----|----14--14--14--14----|
A |----7--6--7--6----|----12--11--12--11----| Times 2
E |----0--0--0--0----|----0---0---0---0-----|
    1st)No lyrics
    2nd)Days Lost...


=>PRE CHORUS<=
e |------------------|----------------------|
B |------------------|----------------------|
G |----9--9--9--9----|----14--14--14--16----|
D |----9--9--9--9----|----14--14--14--16----|
A |----7--6--7--6----|----12--11--12--14----|
E |------------------|----------------------|
        If I could...


=>CHORUS<=
e |------------------|----------------------|-------|
B |------------------|----------------------|-------|
G |----9--9--9--16---|----14--14--16--16----|-14-13-|
D |----9--9--9--16---|----14--14--16--16----|-14-13-|
A |----7--7--6--14---|----12--11--14--14----|-12-11-|
E |------------------|----------------------|-------|
        Straight to my heart...

=>CHORUS<=
e |------------------|----------------------|-------|
B |------------------|----------------------|-------|
G |----9--9--9--16---|----14--14--16--16----|-14-13-|
D |----9--9--9--16---|----14--14--16--16----|-14-13-|
A |----7--7--6--14---|----12--11--14--14----|-12-11-|
E |------------------|----------------------|-------|
        Taking apart...

=>BRIDGE<=
e |------------------|--(Slowly getting)---|
B |------------------|------(louder)-------|
G |------------------|---------------------|
D |------------------|---9-9-9-9-9-9-9-9---|
A |------------------|---7-7-7-7-7-7-7-7---|
E |------------------|---0-0-0-0-0-0-0-0---|


=>CHORUS<=
e |------------------|----------------------|-------|
B |------------------|----------------------|-------|
G |----9--9--9--16---|----14--14--16--16----|-14-13-|
D |----9--9--9--16---|----14--14--16--16----|-14-13-|
A |----7--7--6--14---|----12--11--14--14----|-12-11-|
E |------------------|----------------------|-------|
        Straight to my heart...

=>CHORUS<=
e |------------------|----------------------|-------|
B |------------------|----------------------|-------|
G |----9--9--9--16---|----14--14--16--16----|-14-13-|
D |----9--9--9--16---|----14--14--16--16----|-14-13-|
A |----7--7--6--14---|----12--11--14--14----|-12-11-|
E |------------------|----------------------|-------|
        Taking apart...


=>VERSE<= (NO palm mute)
e |------------------|----------------------|
B |------------------|----------------------|
G |----9--9--9--9----|----14--14--14--14----|
D |----9--9--9--9----|----14--14--14--14----|
A |----7--6--7--6----|----12--11--12--11----| Times 8
E |----0--0--0--0----|----0---0---0---0-----|


***************************************************************************************



-=> 2nd Guitar Part - James Plant <=-


=>INTRO<= (Palm Mute)
e |------------------|-----------------------|
B |------------------|-----------------------|
G |----9--9--9--9----|----7-/-11-\-7-/-11----|
D |----9--9--9--9----|----7-/-11-\-7-/-11----|
A |----7--7--7--7----|----5-/-9--\-5-/-9-----| Times 2
E |------------------|-----------------------|
        No lyrics


=>VERSE<= (Palm mute)
e |------------------|-----------------------|
B |------------------|-----------------------|
G |----9--9--9--9----|----7-/-11-\-7-/-11----|
D |----9--9--9--9----|----7-/-11-\-7-/-11----|
A |----7--7--7--7----|----5-/-9--\-5-/-9-----| Times 2
E |------------------|-----------------------|
    1st)Days lost...
    2nd)Took My...

=>VERSE<= (NO palm mute)
e |------------------|------5--4---5--4------|
B |------------------|------5--4---5--4------|
G |----9--9--9--9----|------2--6---2--6------|
D |----9--9--9--9----|------2--6---2--6------|
A |----7--7--7--7----|------0--4---0--4------| Times 2
E |------------------|-----------------------|
    1st)No lyrics
    2nd)Layed down...


=>PRE CHORUS<=
e |------------------|------5--4---5--4------|
B |-------7-----7----|------5--4---5--4------|
G |----9--8--9--9----|------2--6---2--6------|
D |----9--9--9--9----|------2--6---2--6------|
A |----7--6--7--6----|------0--4---0--4------|
E |------------------|-----------------------|
        If I could...


=>CHORUS<=
e |-------------------|----------------------|
B |-------------------|----------------------|
G |--9-9-9-9-9-9-9-9--|--9-9-9-9---16--16----|
D |--9-9-9-9-9-9-9-9--|--9-9-9-9---16--16----|
A |--7-6-7-6-7-6-7-6--|--7-6-7-6---14--14----|
E |-------------------|----------------------|
        Straight to my heart...

=>CHORUS<=
e |-------------------|----------------------|
B |-------------------|----------------------|
G |--9-9-9-9-9-9-9-9--|--9-9-9-9---16--16----|
D |--9-9-9-9-9-9-9-9--|--9-9-9-9---16--16----|
A |--7-6-7-6-7-6-7-6--|--7-6-7-6---14--14----|
E |-------------------|----------------------|
        Taking apart...


=>VERSE<= (NO palm mute)
e |------------------|-----------------------|
B |------------------|-----------------------|
G |----9--9--9--9----|----7-/-11-\-7-/-11----|
D |----9--9--9--9----|----7-/-11-\-7-/-11----|
A |----7--7--7--7----|----5-/-9--\-5-/-9-----| Times 2
E |------------------|-----------------------|
    1st)No lyrics
    2nd)Days Lost...


=>PRE CHORUS<=
e |------------------|------5--4---5--4------|
B |-------7-----7----|------5--4---5--4------|
G |----9--8--9--9----|------2--6---2--6------|
D |----9--9--9--9----|------2--6---2--6------|
A |----7--6--7--6----|------0--4---0--4------|
E |------------------|-----------------------|
        If I could...


=>CHORUS<=
e |-------------------|--------------------|
B |-------------------|--------------------|
G |--9-9-9-9-9-9-9-9--|--9-9-9-9---16--16--|
D |--9-9-9-9-9-9-9-9--|--9-9-9-9---16--16--|
A |--7-6-7-6-7-6-7-6--|--7-6-7-6---14--14--|
E |-------------------|--------------------|
        Straight to my heart...

=>CHORUS<=
e |-------------------|--------------------|
B |-------------------|--------------------|
G |--9-9-9-9-9-9-9-9--|--9-9-9-9---16--16--|
D |--9-9-9-9-9-9-9-9--|--9-9-9-9---16--16--|
A |--7-6-7-6-7-6-7-6--|--7-6-7-6---14--14--|
E |-------------------|--------------------|
        Taking apart...

=>BRIDGE<=
e |------------------|--(Slowly getting)---|
B |------------------|------(louder)-------|
G |------------------|--14-14-14-14-14-14--|
D |------------------|--14-14-14-14-14-14--|
A |------------------|--12-11-12-11-12-11--|
E |------------------|---------------------|


=>CHORUS<=
e |-------------------|--------------------|
B |-------------------|--------------------|
G |--9-9-9-9-9-9-9-9--|--9-9-9-9---16--16--|
D |--9-9-9-9-9-9-9-9--|--9-9-9-9---16--16--|
A |--7-6-7-6-7-6-7-6--|--7-6-7-6---14--14--|
E |-------------------|--------------------|
        Straight to my heart...

=>CHORUS<=
e |-------------------|--------------------|
B |-------------------|--------------------|
G |--9-9-9-9-9-9-9-9--|--9-9-9-9---16--16--|
D |--9-9-9-9-9-9-9-9--|--9-9-9-9---16--16--|
A |--7-6-7-6-7-6-7-6--|--7-6-7-6---14--14--|
E |-------------------|--------------------|
        Taking apart...


=>VERSE<= (NO palm mute)
e |------------------|------5--4---5--4------|
B |------------------|------5--4---5--4------|
G |----9--9--9--9----|------2--6---2--6------|
D |----9--9--9--9----|------2--6---2--6------|
A |----7--7--7--7----|------0--4---0--4------| Times 8
E |------------------|-----------------------|
Suggest correction
What's this?
You can suggest a correction to this tab. Community and Mods will review your correction and vote to approve or reject it.
comments
We did not receive enough feedback on this tab! Please rate:
print report bad tab
1 2 3 4 5
guest
You may want to rate the tab now too:
select rating
Please do not post tabs as comments. Select "correction" instead!