Oops, an error
Loading. Please wait.

Magneto Tab

version 2
version 2

Whole song

401 views 1 this week
no commentswrite comment
1 2 3 4 5
3 more votes to show rating
add to favorites
launch autoscroll
font size
0
reset
how to read this tab
guitar tuner
Autoscroll
slow
fast
+/-
esc
set tempo
stop
Help us to improve Ultimate-Guitar.com Take our survey!
×
Magneto - Brigade
Tuning: Drop D (G,D,A,D)
Tabbed by Chris Wood =]

G|--------------------------------------------------------------------------|
D|--------------------------------------------------------------------------|
A|--------------------------------------------------------------------------|
D|--4-0-4-0---0-4-0-4-0---0-5555.---0~--------------------------------------|

G|--------------------------------------------------------------------------|
D|--------------------------------------------------------------------------|
A|--------------------------------------------------------------------------|
D|--4-0-4-0---0-4-0-4-0---0-5555.---0~--------------------------------------|

G|--------------------------------------------------------------------------|
D|--------------------------------------------------------------------------|
A|--------------------------------------------------------------------------|
D|--4-0-4-0---0-4-0-4-0---0-5555.---0~--------------------------------------|

G|--------------------------------------------------------------------------|
D|--------------------------------------------------------------------------|
A|--------------------------------------------------------------------------|
D|--4-0-4-0---0-4-0-4-0---0-5555--------------------------------------------|

G|--------------------------------------------------------------------------|
D|--------------------------------------------------------------------------|
A|--99----99----9-9-77----77----7-7-55----55----5-5-1010---1010---10-10-----|
D|--------------------------------------------------------------------------|

G|--------------------------------------------------------------------------|
D|--------------------------------------------------------------------------|
A|--99----99----9-9-77----77----7-7-----------------------------------------|
D|--------------------------------------------------------------------------|

G|--------------------------------------------------------------------------|
D|--------------------------------------------------------------------------|
A|--------------------------------------------------------------------------|
D|--0c--------------5c--------------9c------7c------5c----------------------|

G|--------------------------------------------------------------------------|
D|--------------------------------------------------------------------------|
A|--------------------------------------------------------------------------|
D|--4-0-----4-0-----4-0---4-5555.---0~--------------------------------------|

G|--------------------------------------------------------------------------|
D|--------------------------------------------------------------------------|
A|--------------------------------------------------------------------------|
D|--4-0-----4-0-----4-0---4-5555.---0~--------------------------------------|

G|--------------------------------------------------------------------------|
D|--------------------------------------------------------------------------|
A|--------------------------------------------------------------------------|
D|--4-0-----4-0-----4-0---4-5555.---0~--------------------------------------|

G|--------------------------------------------------------------------------|
D|--------------------------------------------------------------------------|
A|--------------------------------------------------------------------------|
D|--4-0-----4-0-----4-0---4-5555--------------------------------------------|

G|--------------------------------------------------------------------------|
D|--------------------------------------------------------------------------|
A|--99----99----9-9-77----77----7-7-55----55----5-5-1010---1010---10-10-----|
D|--------------------------------------------------------------------------|

G|--------------------------------------------------------------------------|
D|--------------------------------------------------------------------------|
A|--99----99----9-9-77----77----7-7-----------------------------------------|
D|--------------------------------------------------------------------------|

G|--------------------------------------------------------------------------|
D|--------------------------------------------------------------------------|
A|--------------------------------------------------------------------------|
D|--0c--------------5c--------------9c------7c------5c----------------------|

G|--------------------------------------------------------------------------|
D|--------------------------------------------------------------------------|
A|--------------------------------------------------------------------------|
D|--0c--------------5c--------------9c------7c------5c----------------------|

G|--------------------------------------------------------------------------|
D|--------------------------------------------------------------------------|
A|--7/9--9-\7-7/9--9-\7-7/9--9-\7-------------------------------------------|
D|---------------------------------0-000-0-0--------------------------------|

G|--------------------------------------------------------------------------|
D|--------------------------------------------------------------------------|
A|--7/9--9-\7-7/9--9-\7-7/9--9-\7-------------------------------------------|
D|---------------------------------0-000-0-0--------------------------------|


G|--------------------------------------------------------------------------|
D|--------------------------------------------------------------------------|
A|--------------------------------------------------------------------------|
D|--9c------11c-----0c------5c----------------------------------------------|

G|--------------------------------------------------------------------------|
D|--------------------------------------------------------------------------|
A|-------------5555---------------------------------------------------------|
D|--0000.--0-0------5555----------------------------------------------------|

G|--------------------------------------------------------------------------|
D|--------------------------------------------------------------------------|
A|-------------5555---------------------------------------------------------|
D|--0000.--0-0------5555----------------------------------------------------|

G|--------------------------------------------------------------------------|
D|--------------------------------------------------------------------------|
A|-------------5555---------------------------------------------------------|
D|--0000.--0-0------5555----------------------------------------------------|

G|--------------------------------------------------------------------------|
D|--------------------------------------------------------------------------|
A|-------------5555---------------------------------------------------------|
D|--0000.--0-0------5555-0~-------------------------------------------------|

Suggest correction
Give kudos to tab author, rate the tab!
1 2 3 4 5
comments
print report bad tab
guest
You may want to rate the tab now too:
select rating
Wanna post a correction for this tab? Suggest correction