Oops, an error
Loading. Please wait.

Vice To Versa Tab

249 views 1 this week
no commentswrite comment
1 2 3 4 5
3 more votes to show rating
add to favorites
launch autoscroll
font size
0
reset
how to read this tab
guitar tuner
Autoscroll
slow
fast
+/-
esc
set tempo
stop
Help us to improve Ultimate-Guitar.com Take our survey!
×
Author
Band: Brigade
Song: Vice to Versa
Album: Come Morning We Fight
Tabbed by Deathcar Kid/Benji/19371
Tuning: EADGE

Hey, this is the tab for Vice to Versa, done by ear just like all my other tabs so far. 
You can put your guitar in started if you like, but you never play the E string 
the whole song. Here we go:

e|----------------------------------------|--------------------------------------------|
B|----------------------------------------|--------------------------------------------|
G|-7-9-10-9--7-9-10-9--7-9-10-9--7-9-10-9-|----9-10-9-----9-10-9-----9-10-9-----9-10-9-|
D|----------------------------------------|-10---------10---------10---------10--------|
A|----------------------------------------|--------------------------------------------|
E|----------------------------------------|--------------------------------------------|


e|----------------------------------------|--------------------------------------------|
B|----------------------------------------|--------------------------------------------|
G|-7-9-10-9--7-9-10-9--7-9-10-9--7-9-10-9-|----9-10-9-----9-10-9-----9-10-9-----9-10-9-|
D|----------------------------------------|-10---------10---------10---------10--------|
A|----------------------------------------|--------------------------------------------|
E|----------------------------------------|--------------------------------------------|


e|---------------------|---------------------|------------------------------|--------------------|
B|---------------------|---------------------|------------------------------|--------------------|
G|-7-7-7--7-7-7--7-7-7-|-101010-101010-101010|-12-12-12--12-12-12--12-12-12-|-9-9-9--9-9-9-12-12-|
D|---------------------|---------------------|------------------------------|--------------------|
A|-5-5-5--5-5-5--5-5-5-|-8-8-8--8-8-8--8-8-8-|-10-10-10--10-10-10--10-10-10-|-7-7-7--7-7-7-10-10-|
E|---------------------|---------------------|------------------------------|--------------------|

e|---------------------|---------------------|-------------------------|-------------------------|
B|---------------------|---------------------|-------------------------|-------------------------|
G|-7-7-7--7-7-7--7-7-7-|-101010-101010-101010|-14-14-14-14-14-14-14-14-|-12-12-12-12-12-12-12-12-|
D|---------------------|---------------------|-------------------------|-------------------------|
A|-5-5-5--5-5-5--5-5-5-|-8-8-8--8-8-8--8-8-8-|-12-12-12-12-12-12-12-12-|-10-10-10-10-10-10-10-10-|
E|---------------------|---------------------|-------------------------|-------------------------|

e|---------------------------|
B|---------------------------|
G|---------------------------|
D|---------------------------|
A|-1-0-0-0-1-0-0-0-3-0-0-0-5-|
E|---------------------------|

"Looks worse without..."
e|-----------------------------------------|--------------------------------------------------|
B|-----------------------------------------|-15-15-15-13-13-13-13-13--15-15-15-13-13-13-13-13-|
G|-7-7-7-7-9-9-9-9-10-10-10-10-12-12-12-12-|--------------------------------------------------|
D|-----------------------------------------|--------------------------------------------------|
A|-----------------------------------------|--------------------------------------------------|
E|-----------------------------------------|--------------------------------------------------|


"Loose words without..."
e|-----------------------------------------|--------------------------------------------------|
B|-----------------------------------------|-15-15-15-13-13-13-13-13--15-15-15-13-13-13-13-13-|
G|-7-7-7-7-9-9-9-9-10-10-10-10-12-12-12-12-|--------------------------------------------------|
D|-----------------------------------------|--------------------------------------------------|
A|-----------------------------------------|--------------------------------------------------|
E|-----------------------------------------|--------------------------------------------------|

"Quickly march..."
e|---------------------|---------------------|---------------------|---------------------|
B|---------------------|---------------------|---------------------|---------------------|
G|-10-1010-1010-1010---|-9-9-9-9-9-9-9-9-----|-10-1010-1010-1010---|-9-9-9-9-9-9-9-9-----|
D|---------------------|---------------------|---------------------|---------------------|
A|-8--8-8--8-8--8-8----|-7-7-7-7-7-7-7-7-----|-8--8-8--8-8--8-8----|-7-7-7-7-7-7-7-7-----|
E|---------------------|---------------------|---------------------|---------------------|

"Turn away..."
e|---------------------|---------------------|------------------------------|--------------------|
B|---------------------|---------------------|------------------------------|--------------------|
G|-7-7-7--7-7-7--7-7-7-|-101010-101010-101010|-12-12-12--12-12-12--12-12-12-|-9-9-9--9-9-9-12-12-|
D|---------------------|---------------------|------------------------------|--------------------|
A|-5-5-5--5-5-5--5-5-5-|-8-8-8--8-8-8--8-8-8-|-10-10-10--10-10-10--10-10-10-|-7-7-7--7-7-7-10-10-|
E|---------------------|---------------------|------------------------------|--------------------|

"Don't forget..."
e|---------------------|---------------------|-------------------------|-------------------------|
B|---------------------|---------------------|-------------------------|-------------------------|
G|-7-7-7--7-7-7--7-7-7-|-101010-101010-101010|-14-14-14-14-14-14-14-14-|-12-12-12-12-12-12-12-12-|
D|---------------------|---------------------|-------------------------|-------------------------|
A|-5-5-5--5-5-5--5-5-5-|-8-8-8--8-8-8--8-8-8-|-12-12-12-12-12-12-12-12-|-10-10-10-10-10-10-10-10-|
E|---------------------|---------------------|-------------------------|-------------------------|


e|-----------------|
B|-----------------|
G|-7-7-7-7-7-7-7-7-|
D|-----------------|
A|-----------------|
E|-----------------|

"Take turns..."
e|-----------------------------------------|--------------------------------------------------|
B|-----------------------------------------|-15-15-15-13-13-13-13-13--15-15-15-13-13-13-13-13-|
G|-7-7-7-7-9-9-9-9-10-10-10-10-12-12-12-12-|--------------------------------------------------|
D|-----------------------------------------|--------------------------------------------------|
A|-----------------------------------------|--------------------------------------------------|
E|-----------------------------------------|--------------------------------------------------|


"Just hurts..."
e|-----------------------------------------|--------------------------------------------------|
B|-----------------------------------------|-15-15-15-13-13-13-13-13--15-15-15-13-13-13-13-13-|
G|-7-7-7-7-9-9-9-9-10-10-10-10-12-12-12-12-|--------------------------------------------------|
D|-----------------------------------------|--------------------------------------------------|
A|-----------------------------------------|--------------------------------------------------|
E|-----------------------------------------|--------------------------------------------------|

"Quickly march..."
e|---------------------|---------------------|---------------------|---------------------|
B|---------------------|---------------------|---------------------|---------------------|
G|-10-1010-1010-1010---|-9-9-9-9-9-9-9-9-----|-10-1010-1010-1010---|-9-9-9-9-9-9-9-9-----|
D|---------------------|---------------------|---------------------|---------------------|
A|-8--8-8--8-8--8-8----|-7-7-7-7-7-7-7-7-----|-8--8-8--8-8--8-8----|-7-7-7-7-7-7-7-7-----|
E|---------------------|---------------------|---------------------|---------------------|

"Turn away..."
e|---------------------|---------------------|------------------------------|--------------------|
B|---------------------|---------------------|------------------------------|--------------------|
G|-7-7-7--7-7-7--7-7-7-|-101010-101010-101010|-12-12-12--12-12-12--12-12-12-|-9-9-9--9-9-9-12-12-|
D|---------------------|---------------------|------------------------------|--------------------|
A|-5-5-5--5-5-5--5-5-5-|-8-8-8--8-8-8--8-8-8-|-10-10-10--10-10-10--10-10-10-|-7-7-7--7-7-7-10-10-|
E|---------------------|---------------------|------------------------------|--------------------|

"Don't forget..."
e|---------------------|---------------------|-------------------------|-------------------------|
B|---------------------|---------------------|-------------------------|-------------------------|
G|-7-7-7--7-7-7--7-7-7-|-101010-101010-101010|-14-14-14-14-14-14-14-14-|-12-12-12-12-12-12-12-12-|
D|---------------------|---------------------|-------------------------|-------------------------|
A|-5-5-5--5-5-5--5-5-5-|-8-8-8--8-8-8--8-8-8-|-12-12-12-12-12-12-12-12-|-10-10-10-10-10-10-10-10-|
E|---------------------|---------------------|-------------------------|-------------------------|

"That's enough..."
e|---------------------|---------------------|------------------------------|--------------------|
B|---------------------|---------------------|------------------------------|--------------------|
G|-7-7-7-7-7-7-7-7-----|-5-5-5-5-5-5-5-5-----|-3-3-3-3-3-3-3-3--------------|-2-2-2-2-2-2-2-2----|
D|---------------------|---------------------|------------------------------|--------------------|
A|-5-5-5-5-5-5-5-5-----|-3-3-3-3-3-3-3-3-----|-1-1-1-1-1-1-1-1--------------|-0-0-0-0-0-0-0-0----|
E|---------------------|---------------------|------------------------------|--------------------|

"That's enough..."
e|---------------------|---------------------|------------------------------|--------------------|
B|---------------------|---------------------|------------------------------|--------------------|
G|-7-7-7-7-7-7-7-7-----|-5-5-5-5-5-5-5-5-----|-3-3-3-3-3-3-3-3--------------|-2-2-2-2-2-2-2-2----|
D|---------------------|---------------------|------------------------------|--------------------|
A|-5-5-5-5-5-5-5-5-----|-3-3-3-3-3-3-3-3-----|-1-1-1-1-1-1-1-1--------------|-0-0-0-0-0-0-0-0----|
E|---------------------|---------------------|------------------------------|--------------------|

"The hole in your head"

"Turn away..."
e|---------------------|---------------------|------------------------------|--------------------|
B|---------------------|---------------------|------------------------------|--------------------|
G|-7-7-7--7-7-7--7-7-7-|-101010-101010-101010|-12-12-12--12-12-12--12-12-12-|-9-9-9--9-9-9-12-12-|
D|---------------------|---------------------|------------------------------|--------------------|
A|-5-5-5--5-5-5--5-5-5-|-8-8-8--8-8-8--8-8-8-|-10-10-10--10-10-10--10-10-10-|-7-7-7--7-7-7-10-10-|
E|---------------------|---------------------|------------------------------|--------------------|

"Don't forget..."
e|---------------------|---------------------|-------------------------|-------------------------|
B|---------------------|---------------------|-------------------------|-------------------------|
G|-7-7-7--7-7-7--7-7-7-|-101010-101010-101010|-14-14-14-14-14-14-14-14-|-12-12-12-12-12-12-12-12-|
D|---------------------|---------------------|-------------------------|-------------------------|
A|-5-5-5--5-5-5--5-5-5-|-8-8-8--8-8-8--8-8-8-|-12-12-12-12-12-12-12-12-|-10-10-10-10-10-10-10-10-|
E|---------------------|---------------------|-------------------------|-------------------------|

e|---------------------------|
B|---------------------------|
G|---------------------------|
D|---------------------------|
A|-1-0-0-0-1-0-0-0-3-0-0-0-5-|
E|---------------------------|
Suggest correction
Give kudos to tab author, rate the tab!
1 2 3 4 5
comments
print report bad tab
guest
You may want to rate the tab now too:
select rating
Wanna post a correction for this tab? Suggest correction