Oops, an error
Loading. Please wait.

A Spindle A Darkness A Fever And A Necklace Tab

version 2
version 2

Whole song

3,629 views 12 this week
no commentswrite comment
1 2 3 4 5
1 last vote to show rating
add to favorites
launch autoscroll
font size
0
reset
how to read this tab
guitar tuner
Autoscroll
slow
fast
+/-
esc
set tempo
stop
Help us to improve Ultimate-Guitar.com Take our survey!
×
Author
Difficulty
novice
-------------------------------------------------------------------------------
A Spindle A Darkness A Fever And A Necklace – Bright Eyes
-------------------------------------------------------------------------------
Tabbed by: Jessica Dinh
Email: sangodinh@yahoo.com

  [
E|-----0----------|-------------------|---3---------3---|-----------|-----------|
B|------------1---|----1---------1----|-----------------|-----------|-----------|
G|------0------0--|-------------------|-----0--------0--|---0----0--|---3-----3-|
D|---2------2-----|--0---0-----0---0--|--0--------0-----|--2-2--2-2-|--4-4---4-4|
A|-0------0-------|-------------------|-----------------|-3----3----|-----------|
E|----------------|-2---------2-------|3--------3-------|-----------|-2-----2---|

                                  Repeat 3X ]
E|---------------|---0------0----0---------||----------------|---2----2--|
B|---------------|-------------------------||-------5-----5--|----2----2-|
G|--2-----2------|----1------1-----1-------||--------5-----5-|--2----2---|
D|-1-1---1-1-----|--2-----2-----2----------||------5-----5---|-0----0----|
A|2-----2--------|-------------------------||----7------7----|-----------|
E|---------------|0-----0------0-------0---||----------------|-----------|

                             [                                           Repeat 1X ]
E|----------|----------------||----0------0--|---2-----2--|--3----3--|------------||
B|----------|-----1----------||--------------|----2-----2-|----------|--1---------||
G|--4----4--|------0---------||-----0----0-0-|--2-----2---|---0----0-|---0--------||
D|-0-0--0-0-|---2------2-----||---2-----2----|-0-----0----|-0----0---|-2---2------||
A|2----2----|-3------3---3-2-||--0-----------|------------|----------|3---3--3-2--||
E|----------|----------------||--------------|------------|3----3----|------------||

                                                   [
E|----------------|------------2---|---3----3-----3---------||---------------------|
B|-----1----------|---1---------3--|----0------------------S||-------------3h4p3p0-|
G|-------0-----0--|----0-----2-----|----------0-----0------O||---------------------|
D|---2--------2-2-|--0-----0-------|--0----0-----0---------L||---0---0---0---------|
A|-0--------3-----|-2--------------|-----------------------O||-5---5---5-----------|
E|----------------|----------------|-3----3-----3------3--- ||-3---3---3-----------|

                                                 Repeat 1X ]
E|------------------|-------------------|-----------------||--0------0-------0-----|
B|----0-------------|-------------------|----0------------||-----------------------|
G|---2-----2h3p2----|------1--------1---|----------2------||----1------1-------1---|
D|--1----1----------|--------0--------0-|--3--3---1-1-----||-2------2------2-------|
A|-2---2------------|---4----------4----|-4------2--------||-----------------------|
E|------------------|-2---------2-------|-----------------||0-----0------0-------0-|

| /  slide up
| \  slide down
| h  hammer-on
| p  pull-off
| ~  vibrato
| +  harmonic
| x  Mute note
===============================================================================

Suggest correction
Give kudos to tab author, rate the tab!
1 2 3 4 5
comments
print report bad tab
guest
You may want to rate the tab now too:
select rating
Wanna post a correction for this tab? Suggest correction