Oops, an error
Loading. Please wait.

Arienette Tab

19,091 views 18 this week
4 commentsread comments
1 2 3 4 5
x 8
add to favorites
launch autoscroll
font size
0
reset
how to read this tab
guitar tuner
Autoscroll
slow
fast
+/-
esc
set tempo
stop
Help us to improve Ultimate-Guitar.com Take our survey!
×
Author
-------------------------------------------------------------------------------
                             Arienette - Bright Eyes
-------------------------------------------------------------------------------
Tabbed by: Yoshima
Email:derby@fsmail.net

Tuning: Standard


Chords used in the song are...

......C#m.......G#.........E........F#m.........B..........C#.........A.......
e|-----4---------4---------7--------(9)---------7----------9----------5------|
B|-----5---------4---------9---------10---------7----------9----------5------|
G|-----6---------5---------9---------11---------8----------10---------6------|
D|-----6---------6---------9---------11---------9----------11---------7------|
A|-----4---------6---------7---------9----------9----------11---------7------|
E|---------------4-------------------9----------7----------9----------5------|



>>>Intro


...C#m.................... 
e|-----------4-----------|
B|-----5-----5-5----5----|
G|-----6---6---6----6----|
D|-------6--------6------|
A|--4--------------------|
E|-----------------------| x3


>then;

...C#m....................
e|-----------4-------4^--|
B|-----5-----5-5-----5^--|
G|-----6---6---6---6-6^--|
D|-------6-------6---6^--|
A|--4--------------------|
E|-----------------------|

>>>>>>>>>>>>>>>>>>>>>>>>>>>>>>>>>>>>>>>>>>>>>>>>>>>>>>>>>>>>>>>>>>>>>

Verses; 

continue more or less with the above picking pattern for each chord
emphasizing the alternating bass notes played with the thumb.



....C#m.....................................    
The fragile keep secrets gathered in pockets

............G#...........................................            
and they’ll sell them for nothing a cheap watch or locket 

.....E.....................C#m..
that kind of gold washes off 

........(C#m)........................................
and the sad act like lepers they stick to the shadows 

.............G#...........................................
they long to ring bells of warning to tell of their coming 

............E.....................C#m..
so that the pure can shut their doors

........(C#m).................................
and the angry are animals senseless and savage

.....G#.................................
they act without order in logical lapses

.....E..........................C#m..
they stain their mouths with blood

...F#m.........
so take my hand

....................C#m..........
this barren land is alive tonight

........F#m...........
and the corn has grown 

...................C#m..........
stalks that form a wall too high

.............F#m...........
but the wind carries sounds 

......................C#m.............
that I can't see from beyond that line

.........C#m....A........G#...
then the stalks begin to sway 

....C#...........B...A....G#..    
oh, stay with me Ar..ien..ette 

.......................C#m..
until the wolves are away

.........A..G# ........... A...G#.... 
YEP!!!!


The Second Verse has the same structure so the chords are the same.

well, the wicked are vultures and they bake in the canyons
they circle in sunlight and wait for their victims 
to collapse and call to them
the desperate are water they’ll run down forever
as they soak into silence, mend up together in a dark and distant place
so don't leave me here 
with only mirrors watching me
this house it holds nothing but the memories
and the moon it leaves silver but never sleep
and then the silver turns to gray
oh, stay with me Arienette
until the wolves are away. 
Suggest correction
comments
print report bad tab
4 comments total. Showing first comments.
+1 reply
WeeeZZ 73 Oct 26, 2006 10:45 PM

the chord names are indeed wrong.. well maybe not wrong i don't know.. but stupid and overly complicated.. they should be as follows

C#m G# E F#m B C#
e|-------4---------4------------------(9)---------7----------9----------5---------|
B|-------5---------4---------9---------10---------7----------9----------5---------|
G|-------6---------5---------9---------11---------8----------10---------6---------|
D|-------6---------6---------9---------11---------9----------11---------7---------|
A|-------4---------6---------7---------9----------9----------11---------7---------|
E|-----------------4-------------------9----------7----------9----------5---------|

0 reply
yoshima 549 Nov 14, 2006 12:27 PM

Yeah, the chord names are wrong.... powertab has a roundabout way of naming chords. The above ones are right. Tried to change them but the whole tab got messed up so i've just left it as-is for now.

0 reply
yoshima 549 Jun 18, 2007 11:09 AM

Ok, all fixed.

guest
You may want to rate the tab now too:
select rating
Wanna post a correction for this tab? Suggest correction