Oops, an error
Loading. Please wait.
We have Chord Pro version of First Day Of My Life.
It's the closest thing you can get to the original song and it has interactive parts. Check out the tab »
×

First Day Of My Life ukulele

version 3
version 3

Whole song

  • This version includes a full break down of the son... Show more
  • It's a ukulele tab, which is rare on its own, but ... Show more

Interactive

553 views 6 this week
no commentswrite comment
1 2 3 4 5
2 more votes to show rating
add to favorites
×
Save as Personal and add changes to this tab that will be seen only by you. Learn more ›
×
You can save this tab as Personal to edit and correct it or add notes. All changes will be seen only by you. Learn more »
launch autoscroll
font size
0
reset
transpose
0
reset
display chords
guitar tuner
edit
Autoscroll
slow
fast
+/-
esc
set tempo
stop
Author
Difficulty
About this tab version
It's a ukulele tab, which is rare on its own, but for a song for which I have never seen a ukulele tab. I desperately needed one so I converted it myself and thought others might like it as well. Was this info helpful? Yes No
Strumming
There is no strumming pattern for this song yet. and get +5 IQ
This is a reworking of a guitar tab originally tabbed by Kendall Weaver. Her original comments 
and info can be found below:

"Tabbed by: Kendall Weaver
Email: kendall_weaver@yahoo.com

Notes: This is a fingerpicking version I came up with after listening to the song a few
times.  It works particularly well and isn't very difficult.  The style is called "Travis
Picking" and another example is "Dust in the Wind" by Kansas.  It shouldn't be hard to
put the lyrics to it once you get it figured out.  Capo according to your voice range, I
have to play it open in order to sing it."

[Intro]
                                                                  
A|---------------|-2-------2-----|-0-------0-----|-0-------0-----|  
E|-----0---0-0---|-----0---0-0---|-----0---0-0---|-----0---0-0---| 
C|-0-------0-----|---------------|---------------|---------------| 
G|-------0-----0-|-------1-----1-|-5-----2-----2-|-5-----2-----2-| 
                                                                      x2
A|-------3-----3-|-2-------2-----|---------------|---------------| 
E|-1-------1-----|-3-------------|-0---0---0-0---|-----0---0-0---| 
C|---------------|-2---2---2-2---|-0-------0-----|-0-------0-----| 
G|-----2-----2---|-------0-----0-|-------0-----0-|-------0-----0-| 

[A Verse] 
                                                                   
A|---------------|-2-------2-----|-0-------0-----|-0-------0-----|
E|-----0---0-0---|-----0---0-0---|-----0---0-0---|-----0---0-0---|
C|-0-------0-----|---------------|---------------|---------------|
G|-------0-----0-|-------1-----1-|-5-----2-----2-|-5-----2-----2-|
                                                                   
A|-------3-----3-|-------5-----5-|---------------|---------0-----|
E|-1-------1-----|-3-------3-----|-0---0---0-0---|-----0---0-0---|
C|---------------|---------------|-0-------0-----|-0-------------|
G|-----2-----2---|-----4-----4---|-------0-----0-|-------0-----0-|
                                                                      x2
A|---------------|-2-------2-----|-0-------0-----|-0-------0-----|
E|-----0---0-0---|-----0---0-0---|-----0---0-0---|-----0---0-0---|
C|-0-------0-----|---------------|---------------|---------------|
G|-------0-----0-|-------1-----1-|-5-----2-----2-|-5-----2-----2-|
                                                                   
A|-------5-----5-|-------5-----5-|-2-------2-----|-2---2---------|
E|-2-------2-----|-2-------2-----|-3-------3-----|-3-------------|
C|-2-------2-----|-2-------2-----|-----2-----2---|-------2-------|
G|-----2-----2---|-----2-----2---|-------0-----0-|---------0-----|

[B Verse]
                                                                   
A|--------2------|-0-------0-----|-0-------0-----|-------3-----3-|
E|-0-------------|-0---0---0-0---|-----0---0-0---|-1-------1-----|
C|-0------2------|---------------|---------------|---------------|
G|-0------0------|-2-----2-----2-|-5-----2-----2-|-----2-----2---|
                                                                   
A|-------5-------|--------2------|-0-------0-----|-0-------0-----|
E|-3-------3-----|-0-------------|-0---0---0-0---|-----0---0-0---|
C|---------------|-0------2------|---------------|---------------|
G|-----4-----4---|-0------0------|-2-----2-----2-|-5-----2-----2-|
                                                                   
A|-0-------0-----|-0-------0-----|-0-------0-----|-0-------0-----|
E|-----1---0-1---|-----1---0-1---|-----1---0-1---|-----1---0-1---|
C|-2-------------|-2-------------|-2-------------|-2-------------|
G|-------2-----2-|-------2-----2-|-------2-----2-|-------2-----2-|


[Bridge]
                                                                   
A|---------------|-2-------2-----|-0-------0-----|-0-------0-----|
E|-----0---0-0---|-----0---0-0---|-----0---0-0---|-----0---0-0---|
C|-0-------0-----|---------------|---------------|---------------|
G|-------0-----0-|-------1-----1-|-5-----2-----2-|-5-----2-----2-|
                                                                   
A|-0-------0-----|-0-------0-----|-0-------0-----|---------------|
E|-----1---0-1---|-----1---0-1---|-----4-----4---|-4-----1-4---1-|
C|-2-------------|-2-------------|-5-------5-----|---------------|
G|-------2-----2-|-------2-----2-|-------5-----5-|-----5-----5---|

[A Verse]
                                                                   
A|---------------|-2-------2-----|-0-------0-----|-0-------0-----|
E|-----0---0-0---|-----0---0-0---|-----0---0-0---|-----0---0-0---|
C|-0-------0-----|---------------|---------------|---------------|
G|-------0-----0-|-------1-----1-|-5-----2-----2-|-5-----2-----2-|
                                                                   
A|-------3-----3-|-------5-----5-|---------------|---------0-----|
E|-1-------1-----|-3-------3-----|-0---0---0-0---|-----0---0-0---|
C|---------------|---------------|-0-------0-----|-0-------------|
G|-----2-----2---|-----4-----4---|-------0-----0-|-------0-----0-|
                                                                      x2
A|---------------|-2-------2-----|-0-------0-----|-0-------0-----|
E|-----0---0-0---|-----0---0-0---|-----0---0-0---|-----0---0-0---|
C|-0-------0-----|---------------|---------------|---------------|
G|-------0-----0-|-------1-----1-|-5-----2-----2-|-5-----2-----2-|
                                                                   
A|-------5-----5-|-------5-----5-|-2-------2-----|-2---2---------|
E|-2-------2-----|-2-------2-----|-3-------3-----|-3-------------|
C|-2-------2-----|-2-------2-----|-----2-----2---|-------2-------|
G|-----2-----2---|-----2-----2---|-------0-----0-|---------0-----|

[B Verse]
                                                                   
A|--------2------|-0-------0-----|-0-------0-----|-------3-----3-|
E|-0-------------|-0---0---0-0---|-----0---0-0---|-1-------1-----|
C|-0------2------|---------------|---------------|---------------|
G|-0------0------|-2-----2-----2-|-5-----2-----2-|-----2-----2---|
                                                                   
A|-------5-------|--------2------|-0-------0-----|-0-------0-----|
E|-3-------3-----|-0-------------|-0---0---0-0---|-----0---0-0---|
C|---------------|-0------2------|---------------|---------------|
G|-----4-----4---|-0------0------|-2-----2-----2-|-5-----2-----2-|
                                                                   
A|-0-------0-----|-0-------0-----|-0-------0-----|-0-------0-----|
E|-----1---0-1---|-----1---0-1---|-----1---0-1---|-----1---0-1---|
C|-2-------------|-2-------------|-2-------------|-2-------------|
G|-------2-----2-|-------2-----2-|-------2-----2-|-------2-----2-|

[Fill]
                                                                   
A|---------------|-2-------2-----|-0-------0-----|-0-------0-----|
E|-----0---0-1---|-----0---0-0---|-----0---0-0---|-----0---0-0---|
C|-0-------0-----|---------------|---------------|---------------|
G|-------0-----2-|-------1-----1-|-5-----2-----2-|-5-----2-----2-|
                                                                   
A|-0-------0-----|-0-------0-----|-0-------0-----|-0-------0-----|
E|-----1---0-1---|-----1---0-1---|-----1---0-1---|-----1---0-1---|
C|-2-------------|-2-------------|-2-------------|-2-------------|
G|-------2-----2-|-------2-----2-|-------2-----2-|-------2-----2-|

[Bridge]
                                                                   
A|---------------|-2-------2-----|-0-------0-----|-0-------0-----|
E|-----0---0-0---|-----0---0-0---|-----0---0-0---|-----0---0-0---|
C|-0-------0-----|---------------|---------------|---------------|
G|-------0-----0-|-------1-----1-|-5-----2-----2-|-5-----2-----2-|
                                                                      x2   
A|-0-------0-----|-0-------0-----|-0-------0-----|---------------|
E|-----1---0-1---|-----1---0-1---|-----4-----4---|-4-----1-4---1-|
C|-2-------------|-2-------------|-5-------5-----|---------------|
G|-------2-----2-|-------2-----2-|-------5-----5-|-----5-----5---|

[Ending]
                                   
A|---------------|-7------------||
E|-4-------1-----|-3------------||
C|---------------|--------------||
G|-----5-------5-|-5------------||

            
            
Suggest correction
Creating personal tab
Creating personal tab
You can edit any tab online and save it as your Personal.

You can edit, replace or remove any tab part or add personal notes – all changes will be seen only by you.

Personal tabs can be accessed anytime from any device, even offline.
Learn more »
Give kudos to tab author, rate the tab!
1 2 3 4 5
comments
print report bad tab
guest
You may want to rate the tab now too:
select rating
Wanna post a correction for this tab? Suggest correction