Oops, an error
Loading. Please wait.

First Day Of My Life Tab

version 4
version 4

Whole song

Interactive

7,041 views 21 this week
no commentswrite comment
1 2 3 4 5
excellent!
x 8
add to favorites
launch autoscroll
font size
0
reset
how to read this tab
guitar tuner
Tab Pro tools
  • play this tab
  • loop segment
  • change instrument
  • show fretboard
  • metronome
×
Best way to learn
"First Day Of My Life"
Autoscroll
slow
fast
+/-
esc
set tempo
stop
Contributor
Difficulty
Capo
intermediate
4th fret
First Day of My Life - Bright Eyes


This is a really neat song on the Bright Eyes folk album, 'I'm Wide Awake It's Morning'. 

This is a Travis picking arrangement I've written that works well with this song (I think!). 


Enjoy! 


Standard Tuning

Capo on 4 on the album I believe, but adjust to your vocal range if ya like! 

*On some of the F(A) and G(B) shapes feel free to substitute the barre F or open G shapes for the alternate 
patterns if you'd like more of a bass heavy sound. I've included both forms in the tab at different spots
for diversity sake, pick which you prefer. 


Intro

    1   2 + 3 + 4     1   2 + 3 + 4     1   2 + 3 + 4     1 + 2 + 3 + 4

e||-----------0-----|-----------0-----|-----------0-----|-----------0-----|
B||-1---------------|-0---------------|-1---------------|-0h1-------------|
G||-------0---------|-------1---------|-------2---------|-------2---------|
D||-----2-------2---|-----2-------2---|-----2-------2---|-----2-------2---|
A||-3-------3-------|---------2-------|-0-------0-------|-0-------0-------|
E||-----------------|-0---------------|-----------------|-----------------|

   1   2 + 3 + 4     1   2 + 3 + 4     1 + 2 + 3 + 4     1 + 2 + 3 + 4

e|-1---------1-----|-3---------------|-0---------------|-0---------------|
B|-------1---------|-----------0-----|-------1---------|-----------1-----|
G|-----2-------2---|-------0---------|---0-------0-----|-----0-------0---|
D|-3-------3-------|-----0-------0---|-----2-------2---|-----------------|
A|-----------------|-----------------|-3-------3-------|-3-------3-------|
E|-----------------|-3-------3-------|-----------------|-----------------|


Part A  x 2
1.  "This is the first day..."
2.  "Yours is the first face..."

      1   2 + 3 + 4     1   2 + 3 + 4     1   2 + 3 + 4     1 + 2 + 3 + 4

e||-------------0-----|-----------0-----|-----------0-----|-----------0-----|
B||---1---------------|-0---------------|-1---------------|-0h1-------------|
G||o--------0---------|-------1---------|-------2---------|-------2---------|
D||o------2-------2---|-----2-------2---|-----2-------2---|-----2-------2---|
A||---3-------3-------|---------2-------|-0-------0-------|-0-------0-------|
E||-------------------|-0---------------|-----------------|-----------------|

   1   2 + 3 + 4     1   2 + 3 + 4     1 + 2 + 3 + 4     1 + 2 + 3 + 4

e|-1---------1-----|-3---------3-----|-0---------------|-0---------------|
B|-------1---------|-------3---------|-------1---------|-----------1-----|
G|-----2-------2---|-----4-------4---|---0-------0-----|-----0-------0---|
D|-3-------3-------|-5-------5-------|-----2-------2---|-----------------|
A|-----------------|-----------------|-3-------3-------|-3-------3-------|
E|-----------------|-----------------|-----------------|-----------------|

   1   2 + 3 + 4     1   2 + 3 + 4     1   2 + 3 + 4     1 + 2 + 3 + 4

e|-----------0-----|-----------0-----|-----------0-----|-----------0-----|
B|-1---------------|-0---------------|-1---------------|-0h1-------------|
G|-------0---------|-------1---------|-------2---------|-------2---------|
D|-----2-------2---|-----2-------2---|-----2-------2---|-----2-------2---|
A|-3-------3-------|---------2-------|-0-------0-------|-0-------0-------|
E|-----------------|-0---------------|-----------------|-----------------|


   1   2 + 3 + 4     1 + 2 + 3 + 4     1   2 + 3 + 4     1                |
                                       [       FIRST TIME THROUGH       ] |
e|-2---------2-----|-2---------2-----|-3---------3-----|-3---------------||
B|-------1---------|-------1---------|-------3---------|-3---------------||
G|-----2-------2---|-----2-------2---|-----4-------4---|-4--------------o||
D|-0-------0-------|-0-------0-------|-5-------5-------|-5--------------o||
A|-----------------|-----------------|-----------------|-----------------||
E|-----------------|-----------------|-----------------|-----------------||
                                             

  1   2 + 3 + 4     1   2 + 3 + 4     
 [       SECOND TIME THROUGH        ]
|-3---------------|-3---------------||
|-----------0-----|-0---------------||
|-------0---------|-0---------------||
|-----0-------0---|-----------------||
|-----------------|-----------------||
|-3-------3-------|-3---------------||


Part B  x  1

1.  And so I thought I'd let you know...

   1  2 + 3 + 4     1   2 + 3 + 4     1 + 2 + 3 + 4     1   2 + 3 + 4

e|----------------|-----------0-----|-----------0-----|-1---------1-----|
B|-1--------0-----|-1---------------|-0h1-------------|-------1---------|
G|------0---------|-------2---------|-------2---------|-----2-------2---|
D|----2-------0---|-----2-------2---|-----2-------2---|-3-------3-------|
A|-3--------------|-0-------0-------|-0-------0-------|-----------------|
E|--------3-------|-----------------|-----------------|-----------------|

   1   2 + 3 + 4     1   2 + 3 + 4     1   2 + 3 + 4     1   2 + 3 + 4

e|-3---------3-----|-----------------|-----------1-----|-----------0-----|
B|-------3---------|-1---------0-----|-1---------------|-0h1-------------|
G|-----4-------4---|-------0---------|-------2---------|-------2---------|
D|-5-------5-------|-----2-------0---|-----2-------2---|-----2-------2---|
A|-----------------|-3-------2-------|-0-------0-------|-0-------0-------|
E|-----------------|-----------------|-----------------|-----------------|

   1 + 2 + 3 + 4 +   1 + 2 + 3 + 4     1   2 + 3 + 4 +   1   2 + 3 + 4

e|-------0---------|-------0---------|-------0---------|-------0---------|
B|-3-------------3-|-----------------|-3-------------3-|-----------------|
G|---2-------2-----|---2-------2-----|---2-------2-----|---2-------2-----|
D|-----3-------3---|-----3-------3---|-----3-------3---|-----3-------3---|
A|-0-------0-------|-0-------0-------|-0-------0-------|-0-------0-------|
E|-----------------|-----------------|-----------------|-----------------|

  
   1   2 + 3 + 4     1   2 + 3 + 4     1   2 + 3 + 4     1 + 2 + 3 + 4

e|-----------0-----|-----------0-----|-----------0-----|-----------0-----|
B|-1---------------|-0---------------|-1---------------|-0h1-------------|
G|-------0---------|-------1---------|-------2---------|-------2---------|
D|-----2-------2---|-----2-------2---|-----2-------2---|-----2-------2---|
A|-3-------3-------|---------2-------|-0-------0-------|-0-------0-------|
E|-----------------|-0---------------|-----------------|-----------------|

Fill  x 1

   1 + 2 + 3 + 4 +   1 + 2 + 3 + 4     1 + 2 + 3 + 4 +   o  

e|-------0-------0-|-------0---------|---------------8-|-----------------|
B|---3-------3-----|---3-------3-----|-------6---------|-----------------|
G|-----2-------2---|-----2-------2---|---5-------5-----|-----------------|
D|-3-------3-------|-3-------3-------|-6---6---6---6---|-----------------|
A|-----------------|-----------------|-----------------|-----------------|
E|-----------------|-----------------|-----------------|-----------------|


Part C  x 2
1.  "Remember the time we drove all night..."
2.  "And you said, this is the first day..."

      1   2 + 3 + 4     1   2 + 3 + 4     1   2 + 3 + 4     1 + 2 + 3 + 4

e||-------------0-----|-----------0-----|-----------0-----|-----------0-----|
B||---1---------------|-0---------------|-1---------------|-0h1-------------|
G||o--------0---------|-------1---------|-------2---------|-------2---------|
D||o------2-------2---|-----2-------2---|-----2-------2---|-----2-------2---|
A||---3-------3-------|---------2-------|-0-------0-------|-0-------0-------|
E||-------------------|-0---------------|-----------------|-----------------|

   1   2 + 3 + 4     1   2 + 3 + 4     1 + 2 + 3 + 4     1 + 2 + 3 + 4

e|-1---------1-----|-3---------3-----|-0---------------|-0---------------|
B|-------1---------|-------3---------|-------1---------|-----------1-----|
G|-----2-------2---|-----4-------4---|---0-------0-----|-----0-------0---|
D|-3-------3-------|-5-------5-------|-----2-------2---|-----------------|
A|-----------------|-----------------|-3-------3-------|-3-------3-------|
E|-----------------|-----------------|-----------------|-----------------|

   1   2 + 3 + 4     1   2 + 3 + 4     1   2 + 3 + 4     1 + 2 + 3 + 4

e|-----------0-----|-----------0-----|-----------0-----|-----------0-----|
B|-1---------------|-0---------------|-1---------------|-0h1-------------|
G|-------0---------|-------1---------|-------2---------|-------2---------|
D|-----2-------2---|-----2-------2---|-----2-------2---|-----2-------2---|
A|-3-------3-------|---------2-------|-0-------0-------|-0-------0-------|
E|-----------------|-0---------------|-----------------|-----------------|


   1   2 + 3 + 4     1 + 2 + 3 + 4     1   2 + 3 + 4     1                |
                                       [       FIRST TIME THROUGH       ] |
e|-2---------2-----|-2---------2-----|-3---------3-----|-3---------------||
B|-------1---------|-------1---------|-------3---------|-3---------------||
G|-----2-------2---|-----2-------2---|-----4-------4---|-4--------------o||
D|-0-------0-------|-0-------0-------|-5-------5-------|-5--------------o||
A|-----------------|-----------------|-----------------|-----------------||
E|-----------------|-----------------|-----------------|-----------------||
                                             

  1   2 + 3 + 4     1   2 + 3 + 4     
 [       SECOND TIME THROUGH        ]
|-3---------------|-3---------------|
|-----------0-----|-0---------------|
|-------0---------|-0---------------|
|-----0-------0---|-----------------|
|-----------------|-----------------|
|-3-------3-------|-3---------------|


Part D  x  1

1.  "So if you wanna be with me..."

   1  2 + 3 + 4     1   2 + 3 + 4     1 + 2 + 3 + 4     1   2 + 3 + 4

e|----------------|-----------0-----|-----------0-----|-1---------1-----|
B|-1--------0-----|-1---------------|-0h1-------------|-------1---------|
G|------0---------|-------2---------|-------2---------|-----2-------2---|
D|----2-------0---|-----2-------2---|-----2-------2---|-3-------3-------|
A|-3--------------|-0-------0-------|-0-------0-------|-----------------|
E|--------3-------|-----------------|-----------------|-----------------|

   1   2 + 3 + 4     1   2 + 3 + 4     1   2 + 3 + 4     1   2 + 3 + 4

e|-3---------3-----|-----------------|-----------1-----|-----------0-----|
B|-------3---------|-1---------0-----|-1---------------|-0h1-------------|
G|-----4-------4---|-------0---------|-------2---------|-------2---------|
D|-5-------5-------|-----2-------0---|-----2-------2---|-----2-------2---|
A|-----------------|-3-------2-------|-0-------0-------|-0-------0-------|
E|-----------------|-----------------|-----------------|-----------------|
 
  "But I'd rather be working for a paycheck...."
   1 + 2 + 3 + 4 +   1 + 2 + 3 + 4     1   2 + 3 + 4 +   1   2 + 3 + 4

e|-------0---------|-------0---------|-------0---------|-------0---------|
B|-3-------------3-|-----------------|-3-------------3-|-----------------|
G|---2-------2-----|---2-------2-----|---2-------2-----|---2-------2-----|
D|-----3-------3---|-----3-------3---|-----3-------3---|-----3-------3---|
A|-0-------0-------|-0-------0-------|-0-------0-------|-0-------0-------|
E|-----------------|-----------------|-----------------|-----------------|
  
   1   2 + 3 + 4     1   2 + 3 + 4     1   2 + 3 + 4     1 + 2 + 3 + 4

e|-----------0-----|-----------0-----|-----------0-----|-----------0-----|
B|-1---------------|-0---------------|-1---------------|-0h1-------------|
G|-------0---------|-------1---------|-------2---------|-------2---------|
D|-----2-------2---|-----2-------2---|-----2-------2---|-----2-------2---|
A|-3-------3-------|---------2-------|-0-------0-------|-0-------0-------|
E|-----------------|-0---------------|-----------------|-----------------|

  "Besides maybe this time is different...."
   1 + 2 + 3 + 4 +   1 + 2 + 3 + 4     1   2 + 3 + 4 +   1   2 + 3 + 4

e|-------0---------|-------0---------|-------0---------|-------0---------|
B|-3-------------3-|-----------------|-3-------------3-|-----------------|
G|---2-------2-----|---2-------2-----|---2-------2-----|---2-------2-----|
D|-----3-------3---|-----3-------3---|-----3-------3---|-----3-------3---|
A|-0-------0-------|-0-------0-------|-0-------0-------|-0-------0-------|
E|-----------------|-----------------|-----------------|-----------------|

  
   1   2 + 3 + 4     1   2 + 3 + 4     1   2 + 3 + 4     1 + 2 + 3 + 4

e|-----------0-----|-----------0-----|-----------0-----|-----------0-----|
B|-1---------------|-0---------------|-1---------------|-0h1-------------|
G|-------0---------|-------1---------|-------2---------|-------2---------|
D|-----2-------2---|-----2-------2---|-----2-------2---|-----2-------2---|
A|-3-------3-------|---------2-------|-0-------0-------|-0-------0-------|
E|-----------------|-0---------------|-----------------|-----------------|


Fill  x 1

   1 + 2 + 3 + 4 +   1 + 2 + 3 + 4     1 + 2 + 3 + 4 +   o  

e|-------0-------0-|-------0---------|---------------8-|-----------------|
B|---3-------3-----|---3-------3-----|-------6---------|-----------------|
G|-----2-------2---|-----2-------2---|---5-------5-----|-----------------|
D|-3-------3-------|-3-------3-------|-6---6---6---6---|-----------------|
A|-----------------|-----------------|-----------------|-----------------|
E|-----------------|-----------------|-----------------|-----------------|

Outro

   1   2 + 3 + 4     1   2 + 3 + 4     1   2 + 3 + 4     1 + 2 + 3 + 4

e|-----------0-----|-----------0-----|-----------0-----|-----------0-----|
B|-1---------------|-0---------------|-1---------------|-0h1-------------|
G|-------0---------|-------1---------|-------2---------|-------2---------|
D|-----2-------2---|-----2-------2---|-----2-------2---|-----2-------2---|
A|-3-------3-------|---------2-------|-0-------0-------|-0-------0-------|
E|-----------------|-0---------------|-----------------|-----------------|


   1 + 2 + 3 + 4 +   1 + 2 + 3 + 4 +   1 + 2 + 3 + 4 +   o                 1

e|-------0-------0-|-------0-------0-|---------------8-|-----------------|-0----------------||
B|---3-------3-----|---3-------3-----|-------6---------|-----------------|-1----------------||
G|-----2-------2---|-----2-------2---|---5-------5-----|-----------------|-0----------------||
D|-3-------3-------|-3-------3-------|-6---6---6---6---|-----------------|-2----------------||
A|-----------------|-----------------|-----------------|-----------------|-3----------------||
E|-----------------|-----------------|-----------------|-----------------|------------------||


Questions/comments: austin.bodin@gmail.com
comments
print report bad tab
I want to post or [tab]
guest
You may want to rate the tab now too:
select rating
Please do not post tabs as comments. Select "correction" instead!