Oops, an error
Loading. Please wait.

Haligh Haligh A Lie Haligh Tab

version 1
version 1

Intro

Whole song

Interactive

6,536 views 1 this week
4 commentsread comments
1 2 3 4 5
x 6
add to favorites
launch autoscroll
font size
0
reset
how to read this tab
guitar tuner
×
Best way to learn
"Haligh Haligh A Lie Haligh"
Autoscroll
slow
fast
+/-
esc
set tempo
stop
There are little licks thrown in the piece, its got a LOT of personality 
so play with it until it sounds good. This piece has a lot of freedom. 

|------2-------------2-----------------0---------------------|
|--------2-------------2------3s2h3----0--0------------------|
|----2-------------2-------------------4---------------------|
|-4---------4s7-0-----------2----------2---------------------|
|------------------------0----------2-2----2s4---------------|
|-------------------------------------0----------------------|
Suggest correction
comments
print report bad tab
4 comments total. Showing first comments.
0 reply
pedro silva 40 Jan 24, 2002 07:00 PM

The chord at the end is screwed up. When i was writing it i screwed up one the parts and while i was fixing it i made the chord uneven. It?s all supposed to be in a line. You play the intro a whole bunch of times. The only part of this song that?s still a mystery is the chorus, if you have any idea how it goes please post it! Thanks!

0 reply
signal9 10 Nov 11, 2002 07:00 PM

the chords are F#m, Dmaj7, A, Bm

----2------------2------------------2-----
------2------------2---------3p2----3-----
--2-----2-----2------2--------------4-----
4---------4-0-------------2---------4-----
------------------------0---------2----2h4
------------------------------------------

and the chorus is just Bm A G A

Bm
Well Haligh...
A
This weight, it ....
G
You offer only...
A
You know not

Ending with a Bm before going into the second verse

0 reply
signal9 10 Nov 11, 2002 07:00 PM

the chords are F#m, Dmaj7, A, Bm
<pre>
----2------------2------------------2-----
------2------------2---------3p2----3-----
--2-----2-----2------2--------------4-----
4---------4-0-------------2---------4-----
------------------------0---------2----2h4
------------------------------------------
</pre>
and the chorus is just Bm A G A

Bm
Well Haligh...
A
This weight, it ....
G
You offer only...
A
You know not

Ending with a Bm before going into the second verse

guest
You may want to rate the tab now too:
select rating
Wanna post a correction for this tab? Suggest correction