Oops, an error
Loading. Please wait.

Landlocked Blues tab

version 1
version 1

Whole song

Interactive

27,309 views 3 this week
2 commentsread comments
1 2 3 4 5
x 4
add to favorites
×
Save as Personal and add changes to this tab that will be seen only by you. Learn more ›
×
You can save this tab as Personal to edit and correct it or add notes. All changes will be seen only by you. Learn more »
launch autoscroll
font size
0
reset
how to read this tab
guitar tuner
edit
Autoscroll
slow
fast
+/-
esc
set tempo
stop
-------------------------------------------------------------------------------
                          Land locked blues - Bright eyes
-------------------------------------------------------------------------------
Album: I'm wide awake it's morning
Tabbed by: brian_s
Email: bsremec@unseen.is

A long time ago I made my first attempt at making a guitar tab, 
my lack of ear training got the best of me. Anywho, I had some spare time and
I thought I'd do it right this time.

Tuning: E A D G B e   w/   capo on 3rd fret


   C              G              C
if you walk away i'll walk away
       C             G             C
first tell me which road you will take
Am               G               C            Am
i don't want to risk our paths crossing some day
   C                    G                C
so you walk that way, i'll walk this way

and the future hangs over our heads
and it moves with each current event
until it falls all around like a cold, steady rain
just stay in when it's looking this way

and the moons laying low in the sky
forcing everything metal to shine
and the sidewalk holds diamonds
like the jewelry store case
you walk that way, i'll walk this way

and laura's asleep in my bed
as i'm leaving she wakes up and says
i dreamed you were carried away
on the crest of a wave
baby don't go away, come here

and there's kids playing guns in the street
and one's pointing his tree branch at me
so i put my hands up
i say enough is enough
C                 G         C
if you walk away i'll walk away
     C7
and he shot me dead

Am           G      C      Am          G        C
  i found a liquid cure      for my landlocked blues
         F    G           C    Am
it will pass away like a slow parade
        C            G             C
it's leaving but i don't know how soon


Guitar solo
e---------------------0-/3--5--3-3------------------------|
B--1-/5----3---5-\1---------------------------------------|
G---------------------------------------------------------|
D---------------------------------------------------------|
A---------------------------------------------------------|
E---------------------------------------------------------|

e--3h5-5---5p3-3---3--------------------------------------|
B--------------------5-5---5p3p1-------1---5-5\3---1--1---|
G----------------------------------0h2--------------------|
D---------------------------------------------------------|
A---------------------------------------------------------|
E---------------------------------------------------------|

and the world's got me dizzy again
you'd think after 22 years i'd be used to the spin
and it only feels worse when i stay in one place
so i'm always pacing around or walking away

i keep drinking the ink from my pen
and i'm balancing history books up on my head
but it all boils down to one beautiful phrase
if you love something give it away

a good woman will pick you apart
a box full of suggestions for your possible heart
but you may be offended and you may be afraid
but don't walk away, don't walk away

we made love on the living room floor
with the noise in the background from the televised war
and in the deafening pleasure
i thought i heard someone say
if we walk away they'll walk away

but greed is a bottomless pit
and our freedom's a joke we're just taking a piss
and the whole world must watch the sad comic display
if you're still free start running away
cause we're coming for you


Horn solo
e------------------------------------------|
B----------------8------8------8------8----|
G-------8------8------8------8------8------|
D---8-8------8------8------8------8--------|
A------------------------------------------|
E------------------------------------------|

e-----------------------------------------------------|
B-----8-11----8------------------8-9-11-9----8--------|
G---8-----------8---------8---10---------------10-8---|
D-----------------8---8-8-----------------------------|
A-----------------------------------------------------|
E-----------------------------------------------------|

i've grown tired of holding this pose
i feel more like a stranger each time i come home
so i'm making a deal with the devils of fame
saying let me walk away, please

you'll be free, child, once you have died
from the shackles of language and measurable time
and then we can trade places, play musical grace
till then walk away, walk away, walk away, walk away

Am      G         C
 so i'm out that door
Am       G       C
 putting on my shoes
        F       G
i just want to make
   C      Am
a clean escape
       C          G                 C
i'm leaving but i don't know where to
       C          G                 C
i'm leaving but i don't know where to

            
            
Suggest correction
Creating personal tab
Creating personal tab
You can edit any tab online and save it as your Personal.

You can edit, replace or remove any tab part or add personal notes – all changes will be seen only by you.

Personal tabs can be accessed anytime from any device, even offline.
Learn more »
comments
print report bad tab
2 comments total.
0 reply
punkrockdude2 219 Nov 19, 2007 11:31 AM

awful. this song isnt even in the key of D. you fail at life.

0 reply
C_Dizzle 21 Jul 29, 2008 01:29 PM

Capo on 1.. All B's = Bm..

guest
You may want to rate the tab now too:
select rating
Wanna post a correction for this tab? Suggest correction