Oops, an error
Loading. Please wait.

Lua tab

version 2
version 2

Whole song

12,612 views 1 this week
2 commentsread comments
1 2 3 4 5
1 last vote to show rating
add to favorites
×
Save as Personal and add changes to this tab that will be seen only by you. Learn more ›
×
You can save this tab as Personal to edit and correct it or add notes. All changes will be seen only by you. Learn more »
launch autoscroll
font size
0
reset
how to read this tab
guitar tuner
edit
Autoscroll
slow
fast
+/-
esc
set tempo
stop
Difficulty
This is basically Conor on the classical guitar

These are all basically chords but I’m just doing this because it is easier to 
otherwise this is pretty easy
(D chord)
E----------------------------------------------------|
A----------------------------------------------------|
D-------0------------------------0-------------------|
G---------------2---2---2---------------2---2---2----|
B---------------3---3---3---------------3---3---3----|
E---------------2---2---2---------------2---2---2----|
(G chord)*
E----------------------------------------------------|
A----------------------------------------------------|
D----------------------------------------------------|
G-------0------------------------0-------------------|
B----------------0---0---0--------------0---0---0----|
E----------------3---3---3--------------3---3---3----|
(D chord)
E----------------------------------------------------|
A----------------------------------------------------|
D-------0------------------------0-------------------|
G---------------2---2---2---------------2---2---2----|
B---------------3---3---3---------------3---3---3----|
E---------------2---2---2---------------2---2---2----|
(G chord)*
E----------------------------------------------------|
A----------------------------------------------------|
D----------------------------------------------------|
G-------0------------------------0-------------------|
B----------------0---0---0--------------0---0---0----|
E----------------3---3---3--------------3---3---3----|
(D chord)
E----------------------------------------------------|
A----------------------------------------------------|
D-------0------------------------0-------------------|
G---------------2---2---2---------------2---2---2----|
B---------------3---3---3---------------3---3---3----|
E---------------2---2---2---------------2---2---2----|
I know that it is freezing, but I think we have to walk
(D chord)
E----------------------------------------------------|
A----------------------------------------------------|
D----------------------------------------------------|
G-------0------------------------0-------------------|
B----------------0---0---0--------------0---0---0----|
E----------------3---3---3--------------3---3---3----|
(G chord)*
E----------------------------------------------------|
A----------------------------------------------------|
D-------0------------------------0-------------------|
G---------------2---2---2---------------2---2---2----|
B---------------3---3---3---------------3---3---3----|
E---------------2---2---2---------------2---2---2----|
I keep waving at the taxis, they keep turning their lights off
(D chord)
E----------------------------------------------------|
A----------------------------------------------------|
D----------------------------------------------------|
G-------0------------------------0-------------------|
B----------------0---0---0--------------0---0---0----|
E-----------------3---3---3--------------3---3---3---|
(G chord)*
E----------------------------------------------------|
A----------------------------------------------------|
D-------0------------------------0-------------------|
G---------------2---2---2---------------2---2---2----|
B---------------3---3---3---------------3---3---3----|
E---------------2---2---2---------------2---2---2----|
But Julie knows a party at some actor's West side loft
(D chord)
E----------------------------------------------------|
A----------------------------------------------------|
D----------------------------------------------------|
G-------0------------------------0-------------------|
B----------------0---0---0--------------0---0---0----|
E----------------3---3---3--------------3---3---3----|
                 G   G        E   E            G   G     A   A
E-----------3---3------0---0---------3---3-----0---0---------------------------|
A-----------2---2------2---2---------2---2-----0---0---------------------------|
D-----------0---0------2---2---------0---0-----3---3----------0----------------|
G-----------0---0------0---0---------0---0-----3---3---------------2---2---2---|
B-----------0---0------0---0---------0---0-----3---3---------------3---3---3---|
E-----------3---3------0---0---------3---3-----0---0---------------2---2---2---|
Supplies are endless in the evening by the morning they'll be gone

Then repeat until the end of the song!

*this is only the bottom of the G chord

-Danny

            
            
Suggest correction
Creating personal tab
Creating personal tab
You can edit any tab online and save it as your Personal.

You can edit, replace or remove any tab part or add personal notes – all changes will be seen only by you.

Personal tabs can be accessed anytime from any device, even offline.
Learn more »
Give kudos to tab author, rate the tab!
1 2 3 4 5
comments
print report bad tab
2 comments total.
0 reply
okay, cool. 10 Jun 06, 2006 02:23 PM

You have the strings backwards it's supposed to be like this:

e
B
G
D
A
E

0 reply
Pomattic 42 Apr 03, 2008 10:16 AM

I find the progression of G C G C Am D sounds just like the record for the verse.

guest
Wanna post a correction for this tab? Suggest correction