Oops, an error
Loading. Please wait.

No One Would Riot For Less tab

version 2
version 2

Whole song

1,470 views 1 this week
no commentswrite comment
1 2 3 4 5
2 more votes to show rating
add to favorites
×
Save as Personal and add changes to this tab that will be seen only by you. Learn more ›
×
You can save this tab as Personal to edit and correct it or add notes. All changes will be seen only by you. Learn more »
launch autoscroll
font size
0
reset
how to read this tab
guitar tuner
edit
Autoscroll
slow
fast
+/-
esc
set tempo
stop
Author
Difficulty
Intro and verses:


E-------------------------------- -----------------------------------|
B-----7-------7-------7-------7-- ---7-------7-------7-------7-------|
G-------7-------7-------7-------7 -----7-------7-------7-------7-----|
D---9-----9-9-----9-9-----9-9---- -0-----0-0-----0-0-----0-0---------|
A--9-9-9-9-9-9-9-9-9-9-9-9-9-9-9- 0-0-0-0-0-0-0-0-0-0-0-0-0-0-0-0-0--|
E-------------------------------- -----------------------------------|

E-----5-------5-------5-------5-------|
B-------6-------6-------6-------6-----|
G-------------------------------------|
D---7-----7-7-----7-7-----7-7-----7-7-|
A-------------------------------------|
E--5-5-5-5-5-5-5-5-5-5-5-5-5-5-5-5-5--|

Verse
Death may come invisible, or in a holy wall of fire.
In the breaths between the markers, or on some black I-80 mile.
From the madness of the governments, to the vengeance of the sea.
Well, everything is eclipsed by the shape of destiny.

E-----5-------5-------5-------5-------|
B-------6-------6-------6-------6-----|
G-------------------------------------|
D---7-----7-7-----7-7-----7-7-----7-7-|
A-------------------------------------|
E--5-5-5-5-5-5-5-5-5-5-5-5-5-5-5-5-5--|
        So love me now...

E-----2-------2-------2-------2-------|
B-------3-------3-------3-------3-----|
G---4-----4-4-----4-4-----4-4-----4-4-|
D-------------------------------------|
A--2-2-2-2-2-2-2-2-2-2-2-2-2-2-2-2-2--|
E-------------------------------------|
       Hell is coming...


E-----5-------5-------5-------5-------|
B-------6-------6-------6-------6-----|
G-------------------------------------|
D---7-----7-7-----7-7-----7-7-----7-7-|
A-------------------------------------|
E--5-5-5-5-5-5-5-5-5-5-5-5-5-5-5-5-5--|
       Yeah, kiss my mouth...


E-----2-------2-------2-------2-------|
B-------3-------3-------3-------3-----|
G---4-----4-4-----4-4-----4-4-----4-4-|
D-------------------------------------|
A--2-2-2-2-2-2-2-2-2-2-2-2-2-2-2-2-2--|
E-------------------------------------|
        Hell is here...


E-------------------------------------------------------------------|
B-----7-------7-------7-------7-----7-------7-------7-------7-------|
G-------7-------7-------7-------7-----7-------7-------7-------7-----|
D---9-----9-9-----9-9-----9-9-----0-----0-0-----0-0-----0-0---------|
A--9-9-9-9-9-9-9-9-9-9-9-9-9-9-9-0-0-0-0-0-0-0-0-0-0-0-0-0-0-0-0-0--|
E-------------------------------------------------------------------|

E-----5-------5-------5-------5-------|
B-------6-------6-------6-------6-----|
G-------------------------------------|
D---7-----7-7-----7-7-----7-7-----7-7-|
A-------------------------------------|
E--5-5-5-5-5-5-5-5-5-5-5-5-5-5-5-5-5--|

Little soldier, little insect,
You know, war, it has no heart.
It will kill you in the sunshine,
Or happily in the dark.

Where kindness is a card game,
Or a bent-up cigarette
In the trenches, in the hard rain
with a bullet in a bet.

E-----5-------5-------5-------5-------|
B-------6-------6-------6-------6-----|
G-------------------------------------|
D---7-----7-7-----7-7-----7-7-----7-7-|
A-------------------------------------|
E--5-5-5-5-5-5-5-5-5-5-5-5-5-5-5-5-5--|
       He says help me out..

E-----2-------2-------2-------2-------|
B-------3-------3-------3-------3-----|
G---4-----4-4-----4-4-----4-4-----4-4-|
D-------------------------------------|
A--2-2-2-2-2-2-2-2-2-2-2-2-2-2-2-2-2--|
E-------------------------------------|
       Hell is coming...

E-----5-------5-------5-------5-------|
B-------6-------6-------6-------6-----|
G-------------------------------------|
D---7-----7-7-----7-7-----7-7-----7-7-|
A-------------------------------------|
E--5-5-5-5-5-5-5-5-5-5-5-5-5-5-5-5-5--|
       Could you do it now...

E-----2-------2-------2-------2-------|
B-------3-------3-------3-------3-----|
G---4-----4-4-----4-4-----4-4-----4-4-|
D-------------------------------------|
A--2-2-2-2-2-2-2-2-2-2-2-2-2-2-2-2-2--|
E-------------------------------------|
       Hell is here...


          D
See the sterile soil, poisoned sky

  A                              G
Yellow water, finals scraps of light

         Bm  A
Bringing new tears..

------------------------
  D          Bm
Wake, baby wake.

         G
There is nothing I'm planning to take


E---------------------5---5---5-------3---3---3-------2---2----------2--|
B-----7---7---7-----------------------------------------------2---2--3--|
G-------7---7---7-------6---6---6-------4---4---4-------3---3----3---4--|
D---9-------------9-7---------------5-------------5-4-----------4----4--|
A--9-9-9-9-9-9-9-9-7-7-7-7-7-7-7-7-5-5-5-5-5-5-5-5-4-4-4-4-4-4-4-----2--|
E-----------------------------------------------------------------------|
      Just you........Just you............Just you.

The whole rock-out part im not sure of because Conor goes into a jamming fit and i can't 
his little hands.  just try the D-A-G-Bm-A progression or something. ill figure it out later.
Suggest correction
Creating personal tab
Creating personal tab
You can edit any tab online and save it as your Personal.

You can edit, replace or remove any tab part or add personal notes – all changes will be seen only by you.

Personal tabs can be accessed anytime from any device, even offline.
Learn more »
Give kudos to tab author, rate the tab!
1 2 3 4 5
comments
print report bad tab
guest
You may want to rate the tab now too:
select rating
Wanna post a correction for this tab? Suggest correction