Oops, an error
Loading. Please wait.

Nothing Gets Crossed Out Tab

version 2
version 2

Whole song

  • Tabbed full song, correct chords for chorus and ".... Show more
7 views 1 this week
no commentswrite comment
1 2 3 4 5
3 more votes to show rating
add to favorites
launch autoscroll
font size
0
reset
how to read this tab
guitar tuner
Autoscroll
slow
fast
+/-
esc
set tempo
stop
Help us to improve Ultimate-Guitar.com Take our survey!
×
Author
Difficulty
About this tab version
Tabbed full song, correct chords for chorus and "...lost in a crowd" section. In standard tuning, using chord voicings seen here: https://www.youtube.com/watch?v=qyZW94Uwly0. Was this info helpful? Yes No
[Verse 1]

e-|--------------------------------|--------------------------------|
B-|3---3---3---3---3---3---3---3---|4---4---4---4---4---4---4---4---|
G-|3---3---3---3---3---3---3---3---|3---3---3---3---3---3---3---3---|
D-|3---3---3---3---3---3---3---3---|5---5---5---5---5---5---5---5---|
A-|5---5---5---5---5---5---5---5---|3---3---3---3---3---3---3---3---|
E-|--------------------------------|--------------------------------|
   ^ ' ' ' ^ ' ' ' ^ ' ' ' ^ ' ' ' |^ ' ' ' ^ ' ' ' ^ ' ' ' ^ ' ' ' |
   1       2       3       4        1       2       3       4        
the future's got me worried such awful thoughts          my head's a

e-|--------------------------------|--------------------------------|
B-|--------------------------------|--------------------------------|
G-|2---2---2---2---2---2---2---2---|7---7---7---7---7---7---7---7---|
D-|3---3---3---3---3---3---3---3---|8---8---8---8---8---8---8---8---|
A-|3---3---3---3---3---3---3---3---|8---8---8---8---8---8---8---8---|
E-|1---1---1---1---1---1---1---1---|6---6---6---6---5---5---5---5---|
   ^ ' ' ' ^ ' ' ' ^ ' ' ' ^ ' ' ' |^ ' ' ' ^ ' ' ' ^ ' ' ' ^ ' ' ' |
   1       2       3       4        1       2       3       4        
   carousel of pictures the         spinning never stops

e-|--------------------------------|--------------------------------|
B-|3---3---3---3---3---3---3---3---|4---4---4---4---4---4---4---4---|
G-|3---3---3---3---3---3---3---3---|3---3---3---3---3---3---3---3---|
D-|3---3---3---3---3---3---3---3---|5---5---5---5---5---5---5---5---|
A-|5---5---5---5---5---5---5---5---|3---3---3---3---3---3---3---3---|
E-|--------------------------------|--------------------------------|
   ^ ' ' ' ^ ' ' ' ^ ' ' ' ^ ' ' ' |^ ' ' ' ^ ' ' ' ^ ' ' ' ^ ' ' ' |
   1       2       3       4        1       2       3       4        
         i just want someone to walk in front                    and

e-|--------------------------------|--------------------------------|
B-|--------------------------------|--------------------------------|
G-|5---5---5---5---5---5---5---5---|7---7---7---7---7---7---7---7---|
D-|6---6---6---6---6---6---6---6---|8---8---8---8---8---8---8---8---|
A-|6---6---6---6---6---6---6---6---|8---8---8---8---8---8---8---8---|
E-|4---4---4---4---4---4---4---4---|6---6---6---6---6---6---6---6---|
   ^ ' ' ' ^ ' ' ' ^ ' ' ' ^ ' ' ' |^ ' ' ' ^ ' ' ' ^ ' ' ' ^ ' ' ' |
   1       2       3       4        1       2       3       4        
   i'll follow             the leader                   like when i

[Verse 2]

e-|--------------------------------|--------------------------------|
B-|3---3---3---3---3---3---3---3---|4---4---4---4---4---4---4---4---|
G-|3---3---3---3---3---3---3---3---|3---3---3---3---3---3---3---3---|
D-|3---3---3---3---3---3---3---3---|5---5---5---5---5---5---5---5---|
A-|5---5---5---5---5---5---5---5---|3---3---3---3---3---3---3---3---|
E-|--------------------------------|--------------------------------|
   ^ ' ' ' ^ ' ' ' ^ ' ' ' ^ ' ' ' |^ ' ' ' ^ ' ' ' ^ ' ' ' ^ ' ' ' |
   1       2       3       4        1       2       3       4        
   fell under the weight of a       schoolboy crush          started

e-|--------------------------------|--------------------------------|
B-|--------------------------------|--------------------------------|
G-|2---2---2---2---2---2---2---2---|7---7---7---7---7---7---7---7---|
D-|3---3---3---3---3---3---3---3---|8---8---8---8---8---8---8---8---|
A-|3---3---3---3---3---3---3---3---|8---8---8---8---8---8---8---8---|
E-|1---1---1---1---1---1---1---1---|6---6---6---6---5---5---5---5---|
   ^ ' ' ' ^ ' ' ' ^ ' ' ' ^ ' ' ' |^ ' ' ' ^ ' ' ' ^ ' ' ' ^ ' ' ' |
   1       2       3       4        1       2       3       4        
   carrying her books and           doing lots of drugs

e-|--------------------------------|--------------------------------|
B-|3---3---3---3---3---3---3---3---|4---4---4---4---4---4---4---4---|
G-|3---3---3---3---3---3---3---3---|3---3---3---3---3---3---3---3---|
D-|3---3---3---3---3---3---3---3---|5---5---5---5---5---5---5---5---|
A-|5---5---5---5---5---5---5---5---|3---3---3---3---3---3---3---3---|
E-|--------------------------------|--------------------------------|
   ^ ' ' ' ^ ' ' ' ^ ' ' ' ^ ' ' ' |^ ' ' ' ^ ' ' ' ^ ' ' ' ^ ' ' ' |
   1       2       3       4        1       2       3       4        
   i almost forgot                  who i was                    but

e-|--------------------------------|--------------------------------|
B-|--------------------------------|--------------------------------|
G-|5---5---5---5---5---5---5---5---|7---7---7---7---7---7---7---7---|
D-|6---6---6---6---6---6---6---6---|8---8---8---8---8---8---8---8---|
A-|6---6---6---6---6---6---6---6---|8---8---8---8---8---8---8---8---|
E-|4---4---4---4---4---4---4---4---|6---6---6---6---6---6---6---6---|
   ^ ' ' ' ^ ' ' ' ^ ' ' ' ^ ' ' ' |^ ' ' ' ^ ' ' ' ^ ' ' ' ^ ' ' ' |
   1       2       3       4        1       2       3       4        
   i came to my                     senses                   now i'm

[Verse 3]

e-|--------------------------------|--------------------------------|
B-|3---3---3---3---3---3---3---3---|4---4---4---4---4---4---4---4---|
G-|3---3---3---3---3---3---3---3---|3---3---3---3---3---3---3---3---|
D-|3---3---3---3---3---3---3---3---|5---5---5---5---5---5---5---5---|
A-|5---5---5---5---5---5---5---5---|3---3---3---3---3---3---3---3---|
E-|--------------------------------|--------------------------------|
   ^ ' ' ' ^ ' ' ' ^ ' ' ' ^ ' ' ' |^ ' ' ' ^ ' ' ' ^ ' ' ' ^ ' ' ' |
   1       2       3       4        1       2       3       4        
   trying to be assertive i'm making plans                  going to

e-|--------------------------------|--------------------------------|
B-|--------------------------------|--------------------------------|
G-|2---2---2---2---2---2---2---2---|7---7---7---7---7---7---7---7---|
D-|3---3---3---3---3---3---3---3---|8---8---8---8---8---8---8---8---|
A-|3---3---3---3---3---3---3---3---|8---8---8---8---8---8---8---8---|
E-|1---1---1---1---1---1---1---1---|6---6---6---6---5---5---5---5---|
   ^ ' ' ' ^ ' ' ' ^ ' ' ' ^ ' ' ' |^ ' ' ' ^ ' ' ' ^ ' ' ' ^ ' ' ' |
   1       2       3       4        1       2       3       4        
   rise to the occasion    yeah meet all their demands

e-|--------------------------------|--------------------------------|
B-|3---3---3---3---3---3---3---3---|4---4---4---4---4---4---4---4---|
G-|3---3---3---3---3---3---3---3---|3---3---3---3---3---3---3---3---|
D-|3---3---3---3---3---3---3---3---|5---5---5---5---5---5---5---5---|
A-|5---5---5---5---5---5---5---5---|3---3---3---3---3---3---3---3---|
E-|--------------------------------|--------------------------------|
   ^ ' ' ' ^ ' ' ' ^ ' ' ' ^ ' ' ' |^ ' ' ' ^ ' ' ' ^ ' ' ' ^ ' ' ' |
   1       2       3       4        1       2       3       4        
   but all i do is just             lay in bed                   and

e-|--------------------------------|--------------------------------|
B-|--------------------------------|--------------------------------|
G-|5---5---5---5---5---5---5---5---|7---7---7---7---7---7---7---7---|
D-|6---6---6---6---6---6---6---6---|8---8---8---8---8---8---8---8---|
A-|6---6---6---6---6---6---6---6---|8---8---8---8---8---8---8---8---|
E-|4---4---4---4---4---4---4---4---|6---6---6---6---6---6---6---6---|
   ^ ' ' ' ^ ' ' ' ^ ' ' ' ^ ' ' ' |^ ' ' ' ^ ' ' ' ^ ' ' ' ^ ' ' ' |
   1       2       3       4        1       2       3       4        
   hide under the                   covers                  yeah i

[Chorus 1]

e-|--------------------------------|--------------------------------|
B-|4---4---4---4---4---4---4---4---|--------------------------------|
G-|5---5---5---5---5---5---5---5---|2---2---2---2---2---2---2---2---|
D-|5---5---5---5---5---5---5---5---|3---3---3---3---3---3---3---3---|
A-|3---3---3---3---3---3---3---3---|3---3---3---3---3---3---3---3---|
E-|--------------------------------|1---1---1---1---1---1---1---1---|
   ^ ' ' ' ^ ' ' ' ^ ' ' ' ^ ' ' ' |^ ' ' ' ^ ' ' ' ^ ' ' ' ^ ' ' ' |
   1       2       3       4        1       2       3       4        
   know i should be                 brave                        but

e-|--------------------------------|--------------------------------|
B-|--------------------------------|--------------------------------|
G-|7---7---7---7---7---7---7---7---|3---3---3---3---3---3---3---3---|
D-|8---8---8---8---8---8---8---8---|5---5---5---5---5---5---5---5---|
A-|8---8---8---8---8---8---8---8---|5---5---5---5---5---5---5---5---|
E-|6---6---6---6---5---5---5---5---|3---3---3---3---3---3---3---3---|
   ^ ' ' ' ^ ' ' ' ^ ' ' ' ^ ' ' ' |^ ' ' ' ^ ' ' ' ^ ' ' ' ^ ' ' ' |
   1       2       3       4        1       2       3       4        
   i'm just too afraid                              of all this

e-|--------------------------------|--------------------------------|
B-|--------------------------------|--------------------------------|
G-|2---2---2---2---2---2---2---2---|2---2---2---2---2---2---2---2---|
D-|3---3---3---3---3---3---3---3---|3---3---3---3---3---3---3---3---|
A-|3---3---3---3---3---3---3---3---|3---3---3---3---3---3---3---3---|
E-|1---1---1---1---1---1---1---1---|1---1---1---1---1---1---1---1---|
   ^ ' ' ' ^ ' ' ' ^ ' ' ' ^ ' ' ' |^ ' ' ' ^ ' ' ' ^ ' ' ' ^ ' ' ' |
   1       2       3       4        1       2       3       4        
   change                                                       and

[Verse 4]

e-|--------------------------------|--------------------------------|
B-|3---3---3---3---3---3---3---3---|4---4---4---4---4---4---4---4---|
G-|3---3---3---3---3---3---3---3---|3---3---3---3---3---3---3---3---|
D-|3---3---3---3---3---3---3---3---|5---5---5---5---5---5---5---5---|
A-|5---5---5---5---5---5---5---5---|3---3---3---3---3---3---3---3---|
E-|--------------------------------|--------------------------------|
   ^ ' ' ' ^ ' ' ' ^ ' ' ' ^ ' ' ' |^ ' ' ' ^ ' ' ' ^ ' ' ' ^ ' ' ' |
   1       2       3       4        1       2       3       4        
   it's too hard to focus through all this doubt              i keep

e-|--------------------------------|--------------------------------|
B-|--------------------------------|--------------------------------|
G-|2---2---2---2---2---2---2---2---|7---7---7---7---7---7---7---7---|
D-|3---3---3---3---3---3---3---3---|8---8---8---8---8---8---8---8---|
A-|3---3---3---3---3---3---3---3---|8---8---8---8---8---8---8---8---|
E-|1---1---1---1---1---1---1---1---|6---6---6---6---5---5---5---5---|
   ^ ' ' ' ^ ' ' ' ^ ' ' ' ^ ' ' ' |^ ' ' ' ^ ' ' ' ^ ' ' ' ^ ' ' ' |
   1       2       3       4        1       2       3       4        
   making these to-do lists but nothing gets crossed out

e-|--------------------------------|--------------------------------|
B-|3---3---3---3---3---3---3---3---|4---4---4---4---4---4---4---4---|
G-|3---3---3---3---3---3---3---3---|3---3---3---3---3---3---3---3---|
D-|3---3---3---3---3---3---3---3---|5---5---5---5---5---5---5---5---|
A-|5---5---5---5---5---5---5---5---|3---3---3---3---3---3---3---3---|
E-|--------------------------------|--------------------------------|
   ^ ' ' ' ^ ' ' ' ^ ' ' ' ^ ' ' ' |^ ' ' ' ^ ' ' ' ^ ' ' ' ^ ' ' ' |
   1       2       3       4        1       2       3       4        
   working on the record seems pointless now                when the world

e-|--------------------------------|--------------------------------|
B-|--------------------------------|--------------------------------|
G-|5---5---5---5---5---5---5---5---|7---7---7---7---7---7---7---7---|
D-|6---6---6---6---6---6---6---6---|8---8---8---8---8---8---8---8---|
A-|6---6---6---6---6---6---6---6---|8---8---8---8---8---8---8---8---|
E-|4---4---4---4---4---4---4---4---|6---6---6---6---6---6---6---6---|
   ^ ' ' ' ^ ' ' ' ^ ' ' ' ^ ' ' ' |^ ' ' ' ^ ' ' ' ^ ' ' ' ^ ' ' ' |
   1       2       3       4        1       2       3       4        
   ends who's gonna                 hear it                     but i'm

[Verse 5]

e-|--------------------------------|--------------------------------|
B-|3---3---3---3---3---3---3---3---|4---4---4---4---4---4---4---4---|
G-|3---3---3---3---3---3---3---3---|3---3---3---3---3---3---3---3---|
D-|3---3---3---3---3---3---3---3---|5---5---5---5---5---5---5---5---|
A-|5---5---5---5---5---5---5---5---|3---3---3---3---3---3---3---3---|
E-|--------------------------------|--------------------------------|
   ^ ' ' ' ^ ' ' ' ^ ' ' ' ^ ' ' ' |^ ' ' ' ^ ' ' ' ^ ' ' ' ^ ' ' ' |
   1       2       3       4        1       2       3       4        
   trying to take some comfort in written words                 yeah

e-|--------------------------------|--------------------------------|
B-|--------------------------------|--------------------------------|
G-|2---2---2---2---2---2---2---2---|7---7---7---7---7---7---7---7---|
D-|3---3---3---3---3---3---3---3---|8---8---8---8---8---8---8---8---|
A-|3---3---3---3---3---3---3---3---|8---8---8---8---8---8---8---8---|
E-|1---1---1---1---1---1---1---1---|6---6---6---6---5---5---5---5---|
   ^ ' ' ' ^ ' ' ' ^ ' ' ' ^ ' ' ' |^ ' ' ' ^ ' ' ' ^ ' ' ' ^ ' ' ' |
   1       2       3       4        1       2       3       4        
   tim i heard your album and       it's better than good

e-|--------------------------------|--------------------------------|
B-|3---3---3---3---3---3---3---3---|4---4---4---4---4---4---4---4---|
G-|3---3---3---3---3---3---3---3---|3---3---3---3---3---3---3---3---|
D-|3---3---3---3---3---3---3---3---|5---5---5---5---5---5---5---5---|
A-|5---5---5---5---5---5---5---5---|3---3---3---3---3---3---3---3---|
E-|--------------------------------|--------------------------------|
   ^ ' ' ' ^ ' ' ' ^ ' ' ' ^ ' ' ' |^ ' ' ' ^ ' ' ' ^ ' ' ' ^ ' ' ' |
   1       2       3       4        1       2       3       4        
   when you get off tour i          think we should             hang

e-|--------------------------------|--------------------------------|
B-|--------------------------------|--------------------------------|
G-|5---5---5---5---5---5---5---5---|7---7---7---7---7---7---7---7---|
D-|6---6---6---6---6---6---6---6---|8---8---8---8---8---8---8---8---|
A-|6---6---6---6---6---6---6---6---|8---8---8---8---8---8---8---8---|
E-|4---4---4---4---4---4---4---4---|6---6---6---6---6---6---6---6---|
   ^ ' ' ' ^ ' ' ' ^ ' ' ' ^ ' ' ' |^ ' ' ' ^ ' ' ' ^ ' ' ' ^ ' ' ' |
   1       2       3       4        1       2       3       4        
   and black out       together                             cause i been

[Verse 6]

e-|--------------------------------|--------------------------------|
B-|3---3---3---3---3---3---3---3---|4---4---4---4---4---4---4---4---|
G-|3---3---3---3---3---3---3---3---|3---3---3---3---3---3---3---3---|
D-|3---3---3---3---3---3---3---3---|5---5---5---5---5---5---5---5---|
A-|5---5---5---5---5---5---5---5---|3---3---3---3---3---3---3---3---|
E-|--------------------------------|--------------------------------|
   ^ ' ' ' ^ ' ' ' ^ ' ' ' ^ ' ' ' |^ ' ' ' ^ ' ' ' ^ ' ' ' ^ ' ' ' |
   1       2       3       4        1       2       3       4        
   feeling sentimental for          days gone by             all the

e-|--------------------------------|--------------------------------|
B-|--------------------------------|--------------------------------|
G-|2---2---2---2---2---2---2---2---|7---7---7---7---7---7---7---7---|
D-|3---3---3---3---3---3---3---3---|8---8---8---8---8---8---8---8---|
A-|3---3---3---3---3---3---3---3---|8---8---8---8---8---8---8---8---|
E-|1---1---1---1---1---1---1---1---|6---6---6---6---5---5---5---5---|
   ^ ' ' ' ^ ' ' ' ^ ' ' ' ^ ' ' ' |^ ' ' ' ^ ' ' ' ^ ' ' ' ^ ' ' ' |
   1       2       3       4        1       2       3       4        
   summers singing drinking laughing    wasting our time

e-|--------------------------------|--------------------------------|
B-|3---3---3---3---3---3---3---3---|4---4---4---4---4---4---4---4---|
G-|3---3---3---3---3---3---3---3---|3---3---3---3---3---3---3---3---|
D-|3---3---3---3---3---3---3---3---|5---5---5---5---5---5---5---5---|
A-|5---5---5---5---5---5---5---5---|3---3---3---3---3---3---3---3---|
E-|--------------------------------|--------------------------------|
   ^ ' ' ' ^ ' ' ' ^ ' ' ' ^ ' ' ' |^ ' ' ' ^ ' ' ' ^ ' ' ' ^ ' ' ' |
   1       2       3       4        1       2       3       4        
 remember all the songs and the way we smiled               in those

e-|--------------------------------|--------------------------------|
B-|--------------------------------|--------------------------------|
G-|5---5---5---5---5---5---5---5---|7---7---7---7---7---7---7---7---|
D-|6---6---6---6---6---6---6---6---|8---8---8---8---8---8---8---8---|
A-|6---6---6---6---6---6---6---6---|8---8---8---8---8---8---8---8---|
E-|4---4---4---4---4---4---4---4---|6---6---6---6---6---6---6---6---|
   ^ ' ' ' ^ ' ' ' ^ ' ' ' ^ ' ' ' |^ ' ' ' ^ ' ' ' ^ ' ' ' ^ ' ' ' |
   1       2       3       4        1       2       3       4        
   basements made of                music

[Chorus 2]

e-|--------------------------------|--------------------------------|
B-|4---4---4---4---4---4---4---4---|--------------------------------|
G-|5---5---5---5---5---5---5---5---|2---2---2---2---2---2---2---2---|
D-|5---5---5---5---5---5---5---5---|3---3---3---3---3---3---3---3---|
A-|3---3---3---3---3---3---3---3---|3---3---3---3---3---3---3---3---|
E-|--------------------------------|1---1---1---1---1---1---1---1---|
   ^ ' ' ' ^ ' ' ' ^ ' ' ' ^ ' ' ' |^ ' ' ' ^ ' ' ' ^ ' ' ' ^ ' ' ' |
   1       2       3       4        1       2       3       4        
   but now i've got to crawl                                  to get

e-|--------------------------------|--------------------------------|
B-|--------------------------------|--------------------------------|
G-|7---7---7---7---7---7---7---7---|3---3---3---3---3---3---3---3---|
D-|8---8---8---8---8---8---8---8---|5---5---5---5---5---5---5---5---|
A-|8---8---8---8---8---8---8---8---|5---5---5---5---5---5---5---5---|
E-|6---6---6---6---5---5---5---5---|3---3---3---3---3---3---3---3---|
   ^ ' ' ' ^ ' ' ' ^ ' ' ' ^ ' ' ' |^ ' ' ' ^ ' ' ' ^ ' ' ' ^ ' ' ' |
   1       2       3       4        1       2       3       4        
   anywhere            at      all          i'm not as 

e-|--------------------------------|--------------------------------|
B-|--------------------------------|--------------------------------|
G-|2---2---2---2---2---2---2---2---|2---2---2---2---2---2---2---2---|
D-|3---3---3---3---3---3---3---3---|3---3---3---3---3---3---3---3---|
A-|3---3---3---3---3---3---3---3---|3---3---3---3---3---3---3---3---|
E-|1---1---1---1---1---1---1---1---|1---1---1---1---1---1---1---1---|
   ^ ' ' ' ^ ' ' ' ^ ' ' ' ^ ' ' ' |^ ' ' ' ^ ' ' ' ^ ' ' ' ^ ' ' ' |
   1       2       3       4        1       2       3       4        
   strong                      as i thought

[Interlude]

e-|--------------------------------|--------------------------------|
B-|3---3---3---3---3---3---3---3---|4---4---4---4---4---4---4---4---|
G-|3---3---3---3---3---3---3---3---|3---3---3---3---3---3---3---3---|
D-|3---3---3---3---3---3---3---3---|5---5---5---5---5---5---5---5---|
A-|5---5---5---5---5---5---5---5---|3---3---3---3---3---3---3---3---|
E-|--------------------------------|--------------------------------|
   ^ ' ' ' ^ ' ' ' ^ ' ' ' ^ ' ' ' |^ ' ' ' ^ ' ' ' ^ ' ' ' ^ ' ' ' |
   1       2       3       4        1       2       3       4        

e-|--------------------------------|--------------------------------|
B-|--------------------------------|--------------------------------|
G-|2---2---2---2---2---2---2---2---|7---7---7---7---7---7---7---7---|
D-|3---3---3---3---3---3---3---3---|8---8---8---8---8---8---8---8---|
A-|3---3---3---3---3---3---3---3---|8---8---8---8---8---8---8---8---|
E-|1---1---1---1---1---1---1---1---|6---6---6---6---5---5---5---5---|
   ^ ' ' ' ^ ' ' ' ^ ' ' ' ^ ' ' ' |^ ' ' ' ^ ' ' ' ^ ' ' ' ^ ' ' ' |
   1       2       3       4        1       2       3       4        

e-|--------------------------------|--------------------------------|
B-|3---3---3---3---3---3---3---3---|4---4---4---4---4---4---4---4---|
G-|3---3---3---3---3---3---3---3---|3---3---3---3---3---3---3---3---|
D-|3---3---3---3---3---3---3---3---|5---5---5---5---5---5---5---5---|
A-|5---5---5---5---5---5---5---5---|3---3---3---3---3---3---3---3---|
E-|--------------------------------|--------------------------------|
   ^ ' ' ' ^ ' ' ' ^ ' ' ' ^ ' ' ' |^ ' ' ' ^ ' ' ' ^ ' ' ' ^ ' ' ' |
   1       2       3       4        1       2       3       4        

e-|--------------------------------|--------------------------------|
B-|--------------------------------|--------------------------------|
G-|5---5---5---5---5---5---5---5---|7---7---7---7---7---7---7---7---|
D-|6---6---6---6---6---6---6---6---|8---8---8---8---8---8---8---8---|
A-|6---6---6---6---6---6---6---6---|8---8---8---8---8---8---8---8---|
E-|4---4---4---4---4---4---4---4---|6---6---6---6---6---6---6---6---|
   ^ ' ' ' ^ ' ' ' ^ ' ' ' ^ ' ' ' |^ ' ' ' ^ ' ' ' ^ ' ' ' ^ ' ' ' |
   1       2       3       4        1       2       3       4        

e-|--------------------------------|--------------------------------|
B-|3---3---3---3---3---3---3---3---|4---4---4---4---4---4---4---4---|
G-|3---3---3---3---3---3---3---3---|3---3---3---3---3---3---3---3---|
D-|3---3---3---3---3---3---3---3---|5---5---5---5---5---5---5---5---|
A-|5---5---5---5---5---5---5---5---|3---3---3---3---3---3---3---3---|
E-|--------------------------------|--------------------------------|
   ^ ' ' ' ^ ' ' ' ^ ' ' ' ^ ' ' ' |^ ' ' ' ^ ' ' ' ^ ' ' ' ^ ' ' ' |
   1       2       3       4        1       2       3       4        

e-|--------------------------------|--------------------------------|
B-|--------------------------------|--------------------------------|
G-|2---2---2---2---2---2---2---2---|7---7---7---7---7---7---7---7---|
D-|3---3---3---3---3---3---3---3---|8---8---8---8---8---8---8---8---|
A-|3---3---3---3---3---3---3---3---|8---8---8---8---8---8---8---8---|
E-|1---1---1---1---1---1---1---1---|6---6---6---6---5---5---5---5---|
   ^ ' ' ' ^ ' ' ' ^ ' ' ' ^ ' ' ' |^ ' ' ' ^ ' ' ' ^ ' ' ' ^ ' ' ' |
   1       2       3       4        1       2       3       4        

e-|--------------------------------|--------------------------------|
B-|3---3---3---3---3---3---3---3---|4---4---4---4---4---4---4---4---|
G-|3---3---3---3---3---3---3---3---|3---3---3---3---3---3---3---3---|
D-|3---3---3---3---3---3---3---3---|5---5---5---5---5---5---5---5---|
A-|5---5---5---5---5---5---5---5---|3---3---3---3---3---3---3---3---|
E-|--------------------------------|--------------------------------|
   ^ ' ' ' ^ ' ' ' ^ ' ' ' ^ ' ' ' |^ ' ' ' ^ ' ' ' ^ ' ' ' ^ ' ' ' |
   1       2       3       4        1       2       3       4        

e-|--------------------------------|--------------------------------|
B-|--------------------------------|--------------------------------|
G-|5---5---5---5---5---5---5---5---|2---2---2---2---2---2---2---2---|
D-|6---6---6---6---6---6---6---6---|3---3---3---3---3---3---3---3---|
A-|6---6---6---6---6---6---6---6---|3---3---3---3---3---3---3---3---|
E-|4---4---4---4---4---4---4---4---|1---1---1---1---1---1---1---1---|
   ^ ' ' ' ^ ' ' ' ^ ' ' ' ^ ' ' ' |^ ' ' ' ^ ' ' ' ^ ' ' ' ^ ' ' ' |
   1       2       3       4        1       2       3       4        
                                                    so when i'm
[Bridge]

e-|--------------------------------|--------------------------------|
B-|--------------------------------|--------------------------------|
G-|7---7---7---7---7---7---7---7---|7---7---7---7---7---7---7---7---|
D-|8---8---8---8---8---8---8---8---|8---8---8---8---8---8---8---8---|
A-|8---8---8---8---8---8---8---8---|8---8---8---8---8---8---8---8---|
E-|6---6---6---6---6---6---6---6---|6---6---6---6---6---6---6---6---|
   ^ ' ' ' ^ ' ' ' ^ ' ' ' ^ ' ' ' |^ ' ' ' ^ ' ' ' ^ ' ' ' ^ ' ' ' |
   1       2       3       4        1       2       3       4        
               lost                     in a crowd      i hope that

e-|--------------------------------|--------------------------------|
B-|6---6---6---6---6---6---6---6---|6---6---6---6---6---6---6---6---|
G-|7---7---7---7---7---7---7---7---|7---7---7---7---7---7---7---7---|
D-|7---7---7---7---7---7---7---7---|7---7---7---7---7---7---7---7---|
A-|5---5---5---5---5---5---5---5---|5---5---5---5---5---5---5---5---|
E-|--------------------------------|--------------------------------|
   ^ ' ' ' ^ ' ' ' ^ ' ' ' ^ ' ' ' |^ ' ' ' ^ ' ' ' ^ ' ' ' ^ ' ' ' |
   1       2       3       4        1       2       3       4        
                you'll                  pick me out      how i

e-|--------------------------------|--------------------------------|
B-|--------------------------------|--------------------------------|
G-|5---5---5---5---5---5---5---5---|5---5---5---5---5---5---5---5---|
D-|6---6---6---6---6---6---6---6---|6---6---6---6---6---6---6---6---|
A-|6---6---6---6---6---6---6---6---|6---6---6---6---6---6---6---6---|
E-|4---4---4---4---4---4---4---4---|4---4---4---4---4---4---4---4---|
   ^ ' ' ' ^ ' ' ' ^ ' ' ' ^ ' ' ' |^ ' ' ' ^ ' ' ' ^ ' ' ' ^ ' ' ' |
   1       2       3       4        1       2       3       4        
               long                      to be found the grass grew

e-|--------------------------------|--------------------------------|
B-|--------------------------------|--------------------------------|
G-|2---2---2---2---2---2---2---2---|2---2---2---2---2---2---2---2---|
D-|3---3---3---3---3---3---3---3---|3---3---3---3---3---3---3---3---|
A-|3---3---3---3---3---3---3---3---|3---3---3---3---3---3---3---3---|
E-|1---1---1---1---1---1---1---1---|1---1---1---1---1---1---1---1---|
   ^ ' ' ' ^ ' ' ' ^ ' ' ' ^ ' ' ' |^ ' ' ' ^ ' ' ' ^ ' ' ' ^ ' ' ' |
   1       2       3       4        1       2       3       4        
               high    i laid down                      now i

e-|--------------------------------|--------------------------------|
B-|--------------------------------|--------------------------------|
G-|7---7---7---7---7---7---7---7---|7---7---7---7---7---7---7---7---|
D-|8---8---8---8---8---8---8---8---|8---8---8---8---8---8---8---8---|
A-|8---8---8---8---8---8---8---8---|8---8---8---8---8---8---8---8---|
E-|6---6---6---6---6---6---6---6---|6---6---6---6---6---6---6---6---|
   ^ ' ' ' ^ ' ' ' ^ ' ' ' ^ ' ' ' |^ ' ' ' ^ ' ' ' ^ ' ' ' ^ ' ' ' |
   1       2       3       4        1       2       3       4        
               wait                     for a hand to lift me

e-|--------------------------------|--------------------------------|
B-|6---6---6---6---6---6---6---6---|6---6---6---6---6---6---6---6---|
G-|7---7---7---7---7---7---7---7---|7---7---7---7---7---7---7---7---|
D-|7---7---7---7---7---7---7---7---|7---7---7---7---7---7---7---7---|
A-|5---5---5---5---5---5---5---5---|5---5---5---5---5---5---5---5---|
E-|--------------------------------|--------------------------------|
   ^ ' ' ' ^ ' ' ' ^ ' ' ' ^ ' ' ' |^ ' ' ' ^ ' ' ' ^ ' ' ' ^ ' ' ' |
   1       2       3       4        1       2       3       4        
               up                        help me stand i been

e-|--------------------------------|--------------------------------|
B-|--------------------------------|--------------------------------|
G-|5---5---5---5---5---5---5---5---|5---5---5---5---5---5---5---5---|
D-|6---6---6---6---6---6---6---6---|6---6---6---6---6---6---6---6---|
A-|6---6---6---6---6---6---6---6---|6---6---6---6---6---6---6---6---|
E-|4---4---4---4---4---4---4---4---|4---4---4---4---4---4---4---4---|
   ^ ' ' ' ^ ' ' ' ^ ' ' ' ^ ' ' ' |^ ' ' ' ^ ' ' ' ^ ' ' ' ^ ' ' ' |
   1       2       3       4        1       2       3       4        
               laying so low                        don't wanna

e-|--------------------------------|--------------------------------|
B-|--------------------------------|--------------------------------|
G-|2---2---2---2---2---2---2---2---|2---2---2---2---2---2---2---2---|
D-|3---3---3---3---3---3---3---3---|3---3---3---3---3---3---3---3---|
A-|3---3---3---3---3---3---3---3---|3---3---3---3---3---3---3---3---|
E-|1---1---1---1---1---1---1---1---|1---1---1---1---1---1---1---1---|
   ^ ' ' ' ^ ' ' ' ^ ' ' ' ^ ' ' ' |^ ' ' ' ^ ' ' ' ^ ' ' ' ^ ' ' ' |
   1       2       3       4        1       2       3       4        
               lay here no more                         don't wanna

e-|--------------------------------|--------------------------------|
B-|--------------------------------|--------------------------------|
G-|7---7---7---7---7---7---7---7---|7---7---7---7---7---7---7---7---|
D-|8---8---8---8---8---8---8---8---|8---8---8---8---8---8---8---8---|
A-|8---8---8---8---8---8---8---8---|8---8---8---8---8---8---8---8---|
E-|6---6---6---6---6---6---6---6---|6---6---6---6---6---6---6---6---|
   ^ ' ' ' ^ ' ' ' ^ ' ' ' ^ ' ' ' |^ ' ' ' ^ ' ' ' ^ ' ' ' ^ ' ' ' |
   1       2       3       4        1       2       3       4        
               lay here no more                         don't wanna

e-|--------------------------------|--------------------------------|
B-|6---6---6---6---6---6---6---6---|6---6---6---6---6---6---6---6---|
G-|7---7---7---7---7---7---7---7---|7---7---7---7---7---7---7---7---|
D-|7---7---7---7---7---7---7---7---|7---7---7---7---7---7---7---7---|
A-|5---5---5---5---5---5---5---5---|5---5---5---5---5---5---5---5---|
E-|--------------------------------|--------------------------------|
   ^ ' ' ' ^ ' ' ' ^ ' ' ' ^ ' ' ' |^ ' ' ' ^ ' ' ' ^ ' ' ' ^ ' ' ' |
   1       2       3       4        1       2       3       4        
               lay here no more                         don't wanna

e-|--------------------------------|--------------------------------|
B-|--------------------------------|--------------------------------|
G-|5---5---5---5---5---5---5---5---|5---5---5---5---5---5---5---5---|
D-|6---6---6---6---6---6---6---6---|6---6---6---6---6---6---6---6---|
A-|6---6---6---6---6---6---6---6---|6---6---6---6---6---6---6---6---|
E-|4---4---4---4---4---4---4---4---|4---4---4---4---4---4---4---4---|
   ^ ' ' ' ^ ' ' ' ^ ' ' ' ^ ' ' ' |^ ' ' ' ^ ' ' ' ^ ' ' ' ^ ' ' ' |
               lay here no more

e-|--------------------------------|--------------------------------|
B-|--------------------------------|--------------------------------|
G-|2---2---2---2---2---2---2---2---|2---2---2---2---2---2---2---2---|
D-|3---3---3---3---3---3---3---3---|3---3---3---3---3---3---3---3---|
A-|3---3---3---3---3---3---3---3---|3---3---3---3---3---3---3---3---|
E-|1---1---1---1---1---1---1---1---|1---1---1---1---1---1---1---1---|
   ^ ' ' ' ^ ' ' ' ^ ' ' ' ^ ' ' ' |^ ' ' ' ^ ' ' ' ^ ' ' ' ^ ' ' ' |
   1       2       3       4        1       2       3       4        

[Verse 7]

e-|--------------------------------|--------------------------------|
B-|3---3---3---3---3---3---3---3---|4---4---4---4---4---4---4---4---|
G-|3---3---3---3---3---3---3---3---|3---3---3---3---3---3---3---3---|
D-|3---3---3---3---3---3---3---3---|5---5---5---5---5---5---5---5---|
A-|5---5---5---5---5---5---5---5---|3---3---3---3---3---3---3---3---|
E-|--------------------------------|--------------------------------|
   ^ ' ' ' ^ ' ' ' ^ ' ' ' ^ ' ' ' |^ ' ' ' ^ ' ' ' ^ ' ' ' ^ ' ' ' |
   1       2       3       4        1       2       3       4        
if everything that happens is supposed to be                     and

e-|--------------------------------|--------------------------------|
B-|--------------------------------|--------------------------------|
G-|2---2---2---2---2---2---2---2---|7---7---7---7---7---7---7---7---|
D-|3---3---3---3---3---3---3---3---|8---8---8---8---8---8---8---8---|
A-|3---3---3---3---3---3---3---3---|8---8---8---8---8---8---8---8---|
E-|1---1---1---1---1---1---1---1---|6---6---6---6---5---5---5---5---|
   ^ ' ' ' ^ ' ' ' ^ ' ' ' ^ ' ' ' |^ ' ' ' ^ ' ' ' ^ ' ' ' ^ ' ' ' |
   1       2       3       4        1       2       3       4        
   it's all predetermined can't change your destiny

e-|--------------------------------|--------------------------------|
B-|3---3---3---3---3---3---3---3---|4---4---4---4---4---4---4---4---|
G-|3---3---3---3---3---3---3---3---|3---3---3---3---3---3---3---3---|
D-|3---3---3---3---3---3---3---3---|5---5---5---5---5---5---5---5---|
A-|5---5---5---5---5---5---5---5---|3---3---3---3---3---3---3---3---|
E-|--------------------------------|--------------------------------|
   ^ ' ' ' ^ ' ' ' ^ ' ' ' ^ ' ' ' |^ ' ' ' ^ ' ' ' ^ ' ' ' ^ ' ' ' |
   1       2       3       4        1       2       3       4        
   guess i'll just keep moving someday maybe                    i'll

e-|--------------------------------|--------------------------------|
B-|--------------------------------|--------------------------------|
G-|5---5---5---5---5---5---5---5---|7-------------------------------|
D-|6---6---6---6---6---6---6---6---|8-------------------------------|
A-|6---6---6---6---6---6---6---6---|8-------------------------------|
E-|4---4---4---4---4---4---4---4---|6-------------------------------|
   ^ ' ' ' ^ ' ' ' ^ ' ' ' ^ ' ' ' |^ ' ' ' ^ ' ' ' ^ ' ' ' ^ ' ' ' |
   1       2       3       4        1       2       3       4        
   get to where i'm                 going
Suggest correction
Give kudos to tab author, rate the tab!
1 2 3 4 5
comments
print report bad tab
guest
You may want to rate the tab now too:
select rating
Wanna post a correction for this tab? Suggest correction