Oops, an error
Loading. Please wait.

Theme From Piniata chords

1,172 views 1 this week
2 commentsread comments
1 2 3 4 5
1 last vote to show rating
add to favorites
×
Save as Personal and add changes to this tab that will be seen only by you. Learn more ›
×
You can save this tab as Personal to edit and correct it or add notes. All changes will be seen only by you. Learn more »
launch autoscroll
font size
0
reset
transpose
0
reset
simplify chords
display chords
guitar tuner
edit
Autoscroll
slow
fast
+/-
esc
set tempo
stop
Author
Difficulty
Strumming
There is no strumming pattern for this song yet. and get +5 IQ
Theme to Piniata: Bright Eyes
I'm 99% sure this is accurate. You be the judge.

Figure 1
     (C)       (Cmaj7)
e|-----------------------------------------|
B|----2-----0------------------------------|
G|------0------0-----3---------3-----------|
D|--------2-------2-----2---------(2)------|
A|-3----------------------3----------(3)---|
E|-----------------------------------------|

Figure 2
     (F)                (G)
e|--------1--------1------------1------1---|
B|---1--------1---------------1----1-------|
G|-----2---------2--------------------0----|
D|-3---------------------------------------|
A|--------------------------2--------------|
E|------------------------3----------------|


Layout:
Figure 1
Figure 2
Am     G
F      G


Verse 1: (use figures 1 and 2 for first 4 lines)

     C        Cmaj7     C7
Well I wish I had a parachute
           F             G
Cause I'm falling bad for you
      C       Cmaj7     C7
I can see the ground approaching now
         F                G
But I'm not sure what to do
    Am            G
I feel like the piñata
    F             G
Won't you take a swing at me
    Am            G
If you could just crack the shell open
    F                     G
I think inside you would find something sweet


Same Chords throughout song

Verse 2:

Well I hear you like a hunter now
Your footsteps in the leaves
And I would gladly leave my hiding place
Yes I'm hoping to be seen
So let your arrow fly and sing
I'm well within your aim
Lay your traps for a thousand miles
And please don't let me escape

Verse 3:

Winter came to Omaha
It left us looking like a bride
A million perfect snowflakes now
And no two are alike
So it's hard for me imagining
The flaws in this design
I know debris, it covers everything
And still I am in love with this life

Outro: C then |e|-----------|
              |B|-----------|
              |G|-2-0-------|
              |D|-----3-0-2-|
              |A|-------2-3-|
              |E|-----------|
Suggest correction
Creating personal tab
Creating personal tab
You can edit any tab online and save it as your Personal.

You can edit, replace or remove any tab part or add personal notes – all changes will be seen only by you.

Personal tabs can be accessed anytime from any device, even offline.
Learn more »
Give kudos to tab author, rate the tab!
1 2 3 4 5
comments
print report bad tab
2 comments total.
0 reply
jesus.m.guerrer 92 Jul 25, 2011 09:42 AM

almost exactly how i play it. slight mistake, probably a typo

e|-----------------------------------------|
B|----1-----0------------------------------|
G|------0------0-----3---------3-----------|
D|--------2-------2-----2---------(2)------|
A|-3----------------------3----------(3)---|
E|-----------------------------------------|

0 reply
jesus.m.guerrer 92 Jul 25, 2011 09:47 AM

oh shit, also the G isnt always a G, id call that an Am/F# which is : 2x0210

Am            Am/F#
I feel like the piñata
F G
Won't you take a swing at me
Am Am/F#
If you could just crack the shell open
F G
I think inside you would find something sweet

guest
You may want to rate the tab now too:
select rating
Wanna post a correction for this tab? Suggest correction