Oops, an error
Loading. Please wait.

Antivist Tab

version 1
version 1

Whole song

Interactive

46,739 views 120 this week
10 commentsread comments
1 2 3 4 5
excellent!
x 14
add to favorites
launch autoscroll
font size
0
reset
how to read this tab
guitar tuner
Autoscroll
slow
fast
+/-
esc
set tempo
stop
Help us to improve Ultimate-Guitar.com Take our survey!
×
Author
Tuning
C F A# D# G C
BRING ME THE HORIZON
ANTIVIST

TABBED BY andherembrace

   B
C |----------------------------------------------------------------------|
G |----------------------------------------------------------------------|
D#|----------------------------------------------------------------------|
A#|----------------------------------------------------------------------|
F |--^---------------------------------^---------------------------------|
C |13-12-0-0-0-0-0-0-0-0-0-0-0-0-0-0-13-12-0-0-0-0-0-0-0-0-0-0-0-0-0-0---|

C |----------------------------------------------------------------------|
G |----------------------------------------------------------------------|
D#|----------------------------------------------------------------------|
A#|----------------------------------------------------------------------|
F |--^---------------------------------^---------------------------------|
C |13-12-0-0-0-0-0-0-0-0-0-0-0-0-0-0-13-12-0-0-0-0-0-0-0-0-0-0-0-0-0-0---|

C |----------------------------------------------------------------------|
G |----------------------------------------------------------------------|
D#|----------------------------------------------------------------------|
A#|----------------------------------------------------------------------|
F |--^---------------------------------^---------------------------------|
C |13-12-0-0-0-0-0-0-0-0-0-0-0-0-0-0-13-12-0-0-0-0-0-0-0-0-0-0-0-0-0-0---|

C |---------------------------------------------------------------|
G |---------------------------------------------------------------|
D#|---------------------------------------------------------------|
A#|---------------------------------------------------------------|
F |--^---------------------------------^---------------6---5---3--|
C |13-12-0-0-0-0-0-0-0-0-0-0-0-0-0-0-13-12-0-0-0-0-0-0-4-0-3-0-1--|
                                                      *   *
C |-----------------------------------------|
G |-----------------------------------------|
D#|-----------------------------------------|
A#|-----------------------------------------|
F |-----------------------------------------|
C |-1-0-0-00-0-0-0-0-0-1-0-0-00-0-0-0-0-0---|
       **   *   *         **   *   *

C |---------------------------------------|
G |---------------------------------------|
D#|---------------------------------------|
A#|---------------------------------------|
F |-----------------------------6---5---3-|
C |-1-0-0-00-0-0-0-0-0-1-0-0-00-4-0-3-0-1-|
       **   *   *         **   *   *


C |-----------------------------------------|
G |-----------------------------------------|
D#|-----------------------------------------|
A#|-----------------------------------------|
F |-----------------------------------------|
C |-1-0-0-00-0-0-0-0-0-1-0-0-00-0-0-0-0-0---|
       **   *   *         **   *   *

C |---------------------------------------|
G |---------------------------------------|
D#|---------------------------------------|
A#|---------------------------------------|
F |-----------------------------6---5---3-|
C |-1-0-0-00-0-0-0-0-0-1-0-0-00-4-0-3-0-1-|
       **   *   *         **   *   *


0:41

   L
C |-------------|
G |-------------|
D#|-------------|
A#|-_____-------|
F |-)   (-------|
C |-5-----\-----|

C |--------------------------------------------|
G |--------------------------------------------|
D#|--------------------------------------------|
A#|--------------------------------------------|
F |--------------------------------------------|
C |-1-0-0-00-0-0-0-0-0------0-0-00-0-0-0-0-0---|
       **   *   *  |         **   *   *  |

C |------------------------------------------|
G |------------------------------------------|
D#|------------------------------------------|
A#|------------------------------------------|
F |--------------------------------6---5---3-|
C |-1-0-0-00-0-0-0-0-0------0-0-00-4-0-3-0-1-|
       **   *   *  |         **   *   *

C |--------------------------------------------|
G |--------------------------------------------|
D#|--------------------------------------------|
A#|--------------------------------------------|
F |--------------------------------------------|
C |-1-0-0-00-0-0-0-0-0------0-0-00-0-0-0-0-0---|
       **   *   *  |         **   *   *  |

C |------------------------------------------|
G |------------------------------------------|
D#|------------------------------------------|
A#|------------------------------------------|
F |--------------------------------6---5---3-|
C |-1-0-0-00-0-0-0-0-0------0-0-00-4-0-3-0-1-|
       **   *   *  |         **   *   *

C |---------------------------------------------------------|
G |---------------------------------------------------------|
D#|---------------------------------------------------------|
A#|---------------------------------------------------------|
F |-2-----------3-2-----------3-6--6--6--6--5--5--6---3---1-|
C |-0-----------1-0-----------1-4--4--4--4--3--3--4-0-3-0-1-|
                                                 *   *


1:03

C |-----------------------------------------------------------------------|
G |-----------------------------------------------------------------------|
D#|-----------------------------------------------------------------------|
A#|----------2----------------2-------------------------------------------|
F |-3-2-2-22-2-22-22-3-2-2-22-2-22-23-6-6-6-66-6-66-66-5-5-5-55-6---5---3-|
C |-1-0-0-00-0-00-00-1-0-0-00-0-00-01-4-4-4-44-4-44-44-3-3-3-33-4-0-3-0-1-|
                                                               *   *

C |-----------------------------------------------------------------------|
G |-----------------------------------------------------------------------|
D#|-----------------------------------------------------------------------|
A#|----------2----------------2-------------------------------------------|
F |-3-2-2-22-2-22-22-3-2-2-22-2-22-23-6-6-6-66-6-66-66-5-5-5-55-6---5---3-|
C |-1-0-0-00-0-00-00-1-0-0-00-0-00-01-4-4-4-44-4-44-44-3-3-3-33-4-0-3-0-1-|
                                                               *   *

C |----------------------------------------------------------------------|
G |----------------------------------------------------------------------|
D#|----------------------------------------------------------------------|
A#|----------------------------------------------------------------------|
F |----------------------------------------------------------------------|
C |1-0--00-0--00-0--00-0--00-0-0--1-0--00-0--00-0--13-00-13-16-00-16-19--|
     **    **    **    **           **    **       **       **

C |-------------------------------------------------|
G |-------------------------------------------------|
D#|-------------------------------------------------|
A#|-------------------------------------------------|
F |-------------------------------------------------|
C |1-1-0--00-0--00-0--00-0--00-0-0--1-0--00-0--00-0-|
       **    **    **    **           **    **

C |---------------------|
G |---------------------|
D#|---------------------|
A#|---------------------|
F |---------------------|
C |---1-00-1-4-00-4-1---|
     **     **

C |--------------------------|
G |--------------------------|
D#|--------------------------|
A#|--------------------------|
F |--------------------------|
C |----13-00-13-16-00-16-13--|
       **       **

1:31


C |------------------------------------------|
G |------------------------------------------|
D#|------------------------------------------|
A#|------------------------------------------|
F |------------------------------------------|
C |-0-0-0-0-0-00----0-0-0-0-0-0000-0-0-0-0-0-|
   *   *   **      *   *   ****   *   *

C |------------------------------------------|
G |------------------------------------------|
D#|------------------------------------------|
A#|------------------------------------------|
F |------------------------------------------|
C |-0----------------------------------------|


   L
C |------------------------------------------|
G |------------------------------------------|
D#|------------------------------------------|
A#|------------------------------------------|
F |--------------------------------6---5---3-|
C |-0-0-0-0-0-00----0-0-0-0-0-0000-4-0-3-0-1-|
   *   *   **      *   *   ****   *   *

   R
C |------------------------------------------|
G |------------------------------------------|
D#|------------------------------------------|
A#|------------------------------------------|
F |--------------------------------6---5---3-|
C |--------------------------------4-0-3-0-1-|
                                  *   *

   L
C |------------------------------------------|
G |------------------------------------------|
D#|------------------------------------------|
A#|-2---------------2------------------------|
F |-2---------------2------------------------|
C |-0-0-0-0-0-00----0-0-0-0-0-0000-0-0-0-0-0-|
   *   *   **      *   *   ****   *   *

   R
C |------------------------------------------|
G |------------------------------------------|
D#|------------------------------------------|
A#|------------------------------------------|
F |------------------------------------------|
C |------------------------------------------|

   L
C |--------------------------------------0---|
G |--------------------------------------0---|
D#|------------------------------------------|
A#|-2---------------2------------------------|
F |-2---------------2------------------------|
C |-0-0-0-0-0-00----0-0-0-4444441---4\1------|
   *   *   **      *          |

   R
C |------------------------------------------|
G |------------------------------------------|
D#|------------------------------------------|
A#|------------------------------------------|
F |------------------------------------------|
C |------------------------4444441-----------|
                                |

   B
C |------------------------------------------|
G |------------------------------------------|
D#|------------------------------------------|
A#|------------------------------------------|
F |------------------------------------------|
C |-0-0-0-0-0-00----0-0-0-0-0-0000-0-0-0-0-0-|
   *   *   **      *   *   ****   *   *

C |-------------------------------------0----|
G |-------------------------------------0----|
D#|------------------------------------------|
A#|------------------------------------------|
F |------------------------------------------|
C |-0-0-0-0-0-00----0-0-0-0-0-0000-4\1-------|
   *   *   **      *   *   ****

C |------------------------------------------|
G |------------------------------------------|
D#|------------------------------------------|
A#|------------------------------------------|
F |------------------------------------------|
C |-0-0-0-0-0-00----0-0-0-0-0-0000-0-0-0-0-0-|
   *   *   **      *   *   ****   *   *

C |-------------------------------------0----|
G |-------------------------------------0----|
D#|------------------------------------------|
A#|------------------------------------------|
F |------------------------------------------|
C |-0-0-0-0-0-00----0-0-0-0-0-0000-4\1-------|
   *   *   **      *   *   ****


2:00

   [SOLO]
   RING~~~~|
C |----13-----------13-----------------------------------------------|
G |-17----17-----17----17---------)(---------------------15---15/18--|
D#|----------16-----------16---13------------------16-------13-------|
A#|----------------------------------15--14---\/14----14-------------|
F |------------------------------------------------------------------|
C |------------------------------------------------------------------|

   RYTHM
C |------------------------------------------------------------------0--|
G |------------------------------------------------------------------0--|
D#|---------------------------------------------------------------------|
A#|---------------------------------------------------------------------|
F |--------------------------------------------------------------6-3----|
C |0-0-0-0-0-1--0-0-0-0-0-1--0-0-0-0-0-0-0-0-0-0-1--0-0-0-0-0-1--4-1----|
  *   *        *   *        *   *     *   *        *   *


   SOLO
   RING~~~~|
C |----13-----------13---------------------------------------------|
G |-17----17-----17----17---------)(-------------------------------|
D#|----------16-----------16---13----------------------------------|
A#|----------------------------------15--14------------------------|
F |------------------------------------------------8~------8--8--7-|
C |---------------------------------------------00------00---------|
                                             **      **

   RYTHM
C |------------------------------------------------------------------0--|
G |------------------------------------------------------------------0--|
D#|---------------------------------------------------------------------|
A#|---------------------------------------------------------------------|
F |--------------------------------------------------------------6-3----|
C |0-0-0-0-0-1--0-0-0-0-0-1--0-0-0-0-0-0-0-0-0-0-1--0-0-0-0-0-1--4-1----|
  *   *        *   *        *   *     *   *        *   *


C |---------------------------------------------------------------|
G |---------------------------------------------------------------|
D#|---------------------------------------------------------------|
A#|-------------------------------------------------P-------------|
F |--------------------------------------------------S------------|
C |-0-------------------------------------------------\-----------|

C |---------------------------------------------------------|
G |---------------------------------------------------------|
D#|---------------------------------------------------------|
A#|---------------------------------------------------------|
F |-2------------3-2--------------3-6------------6-5--------|
C |-0------------1-0--------------1-4------------4-3--------|

   L
C |-------------------|
G |-------------------|
D#|-------------------|
A#|-------------------|
F |-------------------|
C |--4-4-4-3-3-3-1-1--|

   R
C |--------------------------|
G |--------------------------|
D#|--------------------------|
A#|--------------------------|
F |--------------------------|
C |/16-16-16-15-15-15-13-13--|

C |-------------------------------------------------------------|
G |-------------------------------------------------------------|
D#|-------------------------------------------------------------|
A#|-------------------------------------------------------------|
F |-2------------3-2--------------3-6--6--6--6--5--5--6---5---3-|
C |-0------------1-0--------------1-4--4--4--4--3--3--4-0-3-0-1-|
                                                     *   *

C |-----------------------------------------|
G |-----------------------------------------|
D#|-----------------------------------------|
A#|-----------------------------------------|
F |-----------------------------------------|
C |----------0-0-0-0-0-1-0-0-00-0-0-0-0-0---|
            *   *         **   *   *

C |---------------------------------------|
G |---------------------------------------|
D#|---------------------------------------|
A#|---------------------------------------|
F |-----------------------------6---5---3-|
C |-1-0-0-00-0-0-0-0-0-1-0-0-00-4-0-3-0-1-|
       **   *   *         **   *   *

C |-----------------------------------------|
G |-----------------------------------------|
D#|-----------------------------------------|
A#|-----------------------------------------|
F |-----------------------------------------|
C |-1-0-0-00-0-0-0-0-0-1-0-0-00-0-0-0-0-0---|
       **   *   *         **   *   *

C |---------------------------------------|
G |---------------------------------------|
D#|---------------------------------------|
A#|---------------------------------------|
F |-----------------------------6---5---3-|
C |-1-0-0-00-0-0-0-0-0-1-0-0-00-4-0-3-0-1-|
       **   *   *         **   *   *

C |----------------------------------|
G |----------------------------------|
D#|----------------------------------|
A#|----------------------------------|
F |----------------------------------|
C |-1-0-0-00-0-0-0-0-0-1-0-0-00-0----|
       **   *   *         **  |

   B
C |---------------------------------------|
G |---------------------------------------|
D#|---------------------------------------|
A#|---------------------------------------|
F |-----------------------------6---5---3-|
C |-1-0-0-00-0-0-0-0-0-1-0-0-00-4-0-3-0-1-|
       **   *   *         **   *   *


   L
C |-----------------------------------------|
G |--------------8--------------------------|
D#|--------------9--------------------------|
A#|--------------7--------------------------|
F |--------------7--------------------------|
C |-1-1-1--0-0-0----------0-0-0-0-0-0-------|
                           *   *   |

   R
C |-----------------------------------------|
G |-----------------------------------------|
D#|-------------12121212--------------------|
A#|--------------X-X-X-X--------------------|
F |-8-8-8-7-7-7-10101010--------------------|
C |-----------------------0-0-0-0-0-0-------|
                           *   *   |

   L
C |---------------------------------------------------------------|
G |---------------------------------------------------------------|
D#|---------------------------------------------------------------|
A#|---------------------------------------------------------------|
F |---------------------------------------------------------------|
C |-0-0-0-0-0-0-0-0-0-0-0--44433344111144433344111144433311-0-----|
     *   *     *   *                                      |

   R
C |------------------------------------------------------------------------------|
G |------------------------------------------------------------------------------|
D#|------------------------------------------------------------------------------|
A#|------------------------------------------------------------------------------|
F |----------------------111111101010111188881111111010101111888811111110101088--|
C |-0-0-0-0-0-0-0-0-0-0-0------------------------------------------------------0-|
     *   *     *   *



************************************

| /  Slide up
| \  Slide down
| ~  Vibrato
| P  Pull off
| ^  Legato


************************************
Suggest correction
comments
print report bad tab
10 comments total. Showing first comments.
-1 reply
andherembrace 5,631 wrote on February 25 2013, 09:54 am

part at :41 repeats once more before going to the next riff

part around 1:22 get rid of the first 13-00-

it will be updated ,and for F*** sake if your not gonna rate 5 stars DONT RATE AT ALL IDIOTS

0 reply
andherembrace 5,631 wrote on February 25 2013, 10:18 am

use this tab util this one gets updated

https://docs.google.com/file/d/0B1AHRImLJJTYd1FvdTNxc3lIYlk/edit

0 reply
tristanwilsonmi 258 wrote on March 1 2013, 07:47 pm

This tab is great too, exactly the way I play it.

guest
You may want to rate the tab now too:
select rating
Wanna post a correction for this tab? Suggest correction