Oops, an error
Loading. Please wait.

Blasphemy solo tab

version 1
version 1

Solo

Interactive

6,949 views 33 this week
2 commentsread comments
1 2 3 4 5
x 4
add to favorites
×
Save as Personal and add changes to this tab that will be seen only by you. Learn more ›
×
You can save this tab as Personal to edit and correct it or add notes. All changes will be seen only by you. Learn more »
launch autoscroll
font size
0
reset
how to read this tab
guitar tuner
edit
Autoscroll
slow
fast
+/-
esc
set tempo
stop
Blasphemy - Bring Me The Horizon
Tabbed by: rocktechnician
E-mail: rocktechnician@hotmail.com
Tuning: Drop C#    (C# G# C# F# A# D#}

Just a quick easy solo, first tab too! Make sure you play the note before the slide to the next note as well.
D#|------------------------------9brb(10)-------------------------------------|
A#|-------10----10h12\--------------------------------12--10------------------|
F#|----11----11-----------------------------------11------------7-9/11-9\7----|
C#|---------------------------------------------------------------------------|
G#|---------------------------------------------------------------------------|
C#|---------------------------------------------------------------------------|

D#|-----7---------------------------------------------------------------------|
A#|-------10-7------10-7------------------------------------10----------------|
F#|------------9---------9------------------7-----9/11---------9--------------|
C#|------------------------9----------7--9-----9------------------------------|
G#|---------------------------------------------------------------------------|
C#|---------------------------------------------------------------------------|

D#|---7--9------------------------------10-12--12b(14)-----15b(17)---12-14----------|
A#|---------10-7-10---------------10/12-------------------------------------15--12--|
F#|--------------------9\7----------------------------------------------------------|
C#|---------------------------------------------------------------------------------|
G#|---------------------------------------------------------------------------------|
C#|---------------------------------------------------------------------------------|

************************************

| h  Hammer-on
| /  Slide up
| \  Slide down
| b  Bend
| r  Relase

************************************

            
            
Suggest correction
Creating personal tab
Creating personal tab
You can edit any tab online and save it as your Personal.

You can edit, replace or remove any tab part or add personal notes – all changes will be seen only by you.

Personal tabs can be accessed anytime from any device, even offline.
Learn more »
comments
print report bad tab
2 comments total.
0 reply
daniel.losev 10 Nov 10, 2015 11:10 AM

It must be in drop A#

0 reply
Svanna 22 Feb 11, 2016 12:58 AM

B works fine for me

guest
You may want to rate the tab now too:
select rating
Wanna post a correction for this tab? Suggest correction