Oops, an error
Loading. Please wait.

Blessed With A Curse Tab

version 1
version 1

Whole song

Interactive

136,501 views 105 this week
23 commentsread comments
1 2 3 4 5
excellent!
x 43
add to favorites
launch autoscroll
font size
0
reset
how to read this tab
guitar tuner
Autoscroll
slow
fast
+/-
esc
set tempo
stop
Help us to improve Ultimate-Guitar.com Take our survey!
×
Author
Difficulty
Tuning
intermediate
C G C F A D
Artist - Bring Me The Horizon
Song - Blessed With a Curse
Album - There is a Hell Believe Me I've Seen It, There is a Heaven Let's Keep it a Secret
Profile - horizonaflame
Tabber - Nick Orvik
ps. can also be tabbed in Drop A# but i did it in drop C

Bass intro


[Verse] Come in at 00:31 - 1:31

D|----------------|---------------------------|
A|----------------|---------------------------|
F|-5~---4~---2~---|---5~---7~---12~-----------|   Whole thing 3X
C|-7~---5~---3~---|---7~---9~---14~---10~-----|
G|----------------|---------------------------|
C|----------------|---------------------------|

D|----------------|---------------------------------------------|
A|----------------|---------------------------------------------|
F|-5~---4~---2~---|---5~---7~-----------------------------------|
C|-7~---5~---3~---|---7~---9~---3-3-3-3-3-3-3-3-3-3-3-3-3-3-3-3-|
G|----------------|-------------3-3-3-3-3-3-3-3-3-3-3-3-3-3-3-3-|
C|----------------|-------------3-3-3-3-3-3-3-3-3-3-3-3-3-3-3-3-|
                             PM * * * * * * * * * * * * * * * *

[Chorus] 1:31 - 1:45

D|-------------------------------------------------------------------|
A|-------------------------------------------------------------------|
F|--------9-9-9-9--------9-9-9-9--------9-9-9-9-10-10-10-10--9-9-9-9-|   WT 2X
C|-7~-7-7-x-x-x-x-5~-5-5-x-x-x-x-3~-3-3------------------------------|
G|-7~-7-7-7-7-7-7-5~-5-5-7-7-7-7-3~-3-3-7-7-7-7-8--8--8--8---7-7-7-7-|
C|-7~-7-7---------5~-5-5---------3~-3-3------------------------------|


[Chorus Outro] 1:45 - 1:52

D|----------------|
A|----------------|
F|-5~---4~---2~---|
C|-7~---5~---3~---|
G|----------------|
C|----------------|


[Verse 2] 1:52 - 2:22

D|----------------|-------------------------|
A|----------------|-------------------------|
F|-5~---4~---2~---|---5~---7~---12~---------|  WT 2X
C|-7~---5~---3~---|---7~---9~---14~---10~---|
G|----------------|-------------------------|
C|----------------|-------------------------|


[Bridge] 2:22 - 2:52

D|------------------|-------------|
A|------------------|-------------|
F|------------------|-------------|   2X
C|-3-----5----7-----|-5-----3-----|
G|-3-X12-5-X4-7-X16-|-5-X16-3-X16-|
C|-3-----5----7-----|-5-----3-----|


[Chorus] 2:52 - 3:21

D|-------------------------------------------------------------------|
A|-------------------------------------------------------------------|
F|--------9-9-9-9--------9-9-9-9--------9-9-9-9-10-10-10-10--9-9-9-9-|   WT 4X
C|-7~-7-7-x-x-x-x-5~-5-5-x-x-x-x-3~-3-3------------------------------|
G|-7~-7-7-7-7-7-7-5~-5-5-7-7-7-7-3~-3-3-7-7-7-7-8--8--8--8---7-7-7-7-|
C|-7~-7-7---------5~-5-5---------3~-3-3------------------------------|


[Bridge 2] pt. 1 (during solo) 3:21 - 3:36

D|----------------------|
A|----------------------|
F|----------------------|
C|-7----5----3-----5----| 2X
G|-7-X8-5-X8-3-X12-5-X4-|
C|-7----5----3-----5----|


[Bridge 2] pt. 2 (during solo) 3:36 - 3:52

D|--------------------------------------------------------------------------------|
A|--------------------------------------------------------------------------------|
F|---------9-9-9-9---------9-9-9-9---------9-9-9-9-10-10-10-10--9-9-9-9-----------|
C|-7-7-7-7-x-x-x-x-5-5-5-5-x-x-x-x-3-3-3-3-x-x-x-x--x--x--x--x--x-x-x-x-----------| 2X
G|-7-7-7-7-7-7-7-7-5-5-5-5-7-7-7-7-3-3-3-3-7-7-7-7--8--8--8--8--7-7-7-7-----------|
C|-7-7-7-7---------5-5-5-5---------3-3-3-3----------------------------------------|


[Outro] 3:52

Power chords in this progression (needs delay!!!)

D|-x-|-x-|-x-|-x-|
A|-x-|-x-|-x-|-x-|
F|-x-|-x-|-x-|-x-|
C|-7-|-5-|-3-|-3-|
G|-7-|-5-|-3-|-3-|
C|-7-|-5-|-3-|-3-|

there it is, hope you like it im sure its all 100% except the outro changes chord
progressions (you figure it out cos i got lazy lol) and if you like music, BUY IT! dont STEAL

************************************

| x  Dead note
| ~  Vibrato

************************************
Suggest correction
What's this?
You can suggest a correction to this tab. Community and Mods will review your correction and vote to approve or reject it.
comments
print report bad tab
23 comments total. Showing first comments.
+6 reply
blessthefallman 50 wrote on February 27 2011, 03:36 pm

that was the most accurate tab i have ever hear...astounding job :)

0 reply
horizonaflame 450 wrote on February 28 2011, 04:20 pm

Thanks man, and btw now its updated.

0 reply
~LΣGACY~ 111 wrote on April 6 2011, 09:33 pm

Hey man this tab is great nice job
I love this song
And I love easy and cool guitar haha

guest
You may want to rate the tab now too:
select rating
Please do not post tabs as comments. Select "correction" instead!