Oops, an error
Loading. Please wait.

Blessed With A Curse tab

version 2
version 2

Whole song

Interactive

34,277 views 48 this week
8 commentsread comments
1 2 3 4 5
x 10
add to favorites
×
Save as Personal and add changes to this tab that will be seen only by you. Learn more ›
×
You can save this tab as Personal to edit and correct it or add notes. All changes will be seen only by you. Learn more »
launch autoscroll
font size
0
reset
how to read this tab
guitar tuner
edit
Autoscroll
slow
fast
+/-
esc
set tempo
stop
Bring Me The Horizon, Blessed With  A Curse Tab 

[Verse]
Guitar 1

D|----------------|---------------------------|
A|----------------|---------------------------|
F|-5----4----2----|---5----7----12------------|   
C|-7----5----3----|---7----9----14----10------|
G|----------------|---------------------------|
C|----------------|---------------------------|(x3)

D|----------------|---------------------------------------------|
A|----------------|---------------------------------------------|
F|-5----4----2----|---5----7------------------------------------|
C|-7----5----3----|---7----9----3-3-3-3-3-3-3-3-3-3-3-3-3-3-3-3-|
G|----------------|-------------3-3-3-3-3-3-3-3-3-3-3-3-3-3-3-3-|
C|----------------|-------------3-3-3-3-3-3-3-3-3-3-3-3-3-3-3-3-|
                            
Guitar 2

D|----------------|---------------------------|
A|----------------|---------------------------|
F|-5----4----2----|---5~---7~---12------------|  
C|-7----5----3----|---7~---9~---14----10------|
G|----------------|---------------------------|
C|----------------|---------------------------|(x4)
                            

[Chorus]
Both Guitars 

D|----------------------------------------------|
A|----------------------------------------------|
F|-------9999-------9999-------9999101010109999-| 
C|-7~-77-xxxx-5~-55-xxxx-3~-33------------------|
G|-7~-77-7777-5~-55-7777-3~-33-7777-8-8-8-87777-|
C|-7~-77------5~-55------3~-33------------------|(x2)

[Chorus Outro] 
D|----------------|
A|----------------|
F|-5----4----2----|
C|-7----5----3----|
G|----------------|
C|----------------|

[Verse 2]
Both Guitars

D|----------------|-------------------------|
A|----------------|-------------------------|
F|-5----4----2~---|---5----7----12----------| 
C|-7----5----3~---|---7----9----14----10----|
G|----------------|-------------------------|
C|----------------|-------------------------|(x2)

[Bridge]
Guitar 1

D|------------------|-------------|
A|------------------|-------------|
F|------------------|-------------| 
C|-3-----5----7-----|-5-----3-----|
G|-3-X12-5-X4-7-X16-|-5-X16-3-X16-|
C|-3-----5----7-----|-5-----3-----|(x2)

Guitar 2 (Fast Picking)

D|-13-12--15-17--------12-13--|--13-12--15--17--------*12b13--| *gradually 
A|--------------13-12---------|----------------13-12----------| bend while
F|----------------------------|-------------------------------| still 
C|----------------------------|-------------------------------| picking fast
G|----------------------------|-------------------------------|
C|----------------------------|-------------------------------|

[Chorus]
Both Guitars 

D|----------------------------------------------|
A|----------------------------------------------|
F|-------9999-------9999-------9999101010109999-| 
C|-7~-77-xxxx-5~-55-xxxx-3~-33------------------|
G|-7~-77-7777-5~-55-7777-3~-33-7777-8-8-8-87777-|
C|-7~-77------5~-55------3~-33------------------|(x4)


Bridge 2 part 1
Guitar 1

D|----------------------|
A|----------------------|
F|----------------------|
C|-7----5----3-----5----| 
G|-7-X8-5-X8-3-X12-5-X4-|
C|-7----5----3-----5----|(x2)

Guitar 2

D|-------------------|--------------------|-----------------------------12|
A|-------------------|--------------------|--------------------------10---|
F|12-----------------|12-----------------9|12-----------------------------|
C|---10-12----9h10-9-|---10-12----9h10-9--|---10-12----9h10-9-------------|
G|---------10--------|---------10---------|---------10--------10p8-8------|
C|-------------------|--------------------|-------------------------------|

Bridge 2 part 2
Guitar 1

D|-------------------------------------------|
A|-------------------------------------------|
F|------9999------9999------9999101010109999-|
C|-7777-xxxx-5555-xxxx-3333-xxxx-x-x-x-xxxxx-| 
G|-7777-7777-5555-7777-3333-7777-8-8-8-87777-|
C|-7777------5555------3333------------------|(x2)

[Solo]
Guitar 1


D|-------------------------------------------|
A|-------------------------------------------|
F|------9999------9999------9999101010109999-|
C|-7777-xxxx-5555-xxxx-3333-xxxx-x-x-x-xxxxx-| 
G|-7777-7777-5555-7777-3333-7777-8-8-8-87777-|
C|-7777------5555------3333------------------|(x2)

[Solo]
Guitar 2

D|----------------15-17-19b-17-15-17-20-17-------------------------------|
A|------13-10--17--------------------------------------------------------|
F|-9-12------------------------------------------------------------------|
C|-------------------------------------------------12-12b-14-12p10-------|
G|-------------------------------------------12-15-----------------12-10-|
C|-----------------------------------------------------------------------|

D|-5-------------------------------------------------|
A|---8-5-8-5---5-------------------------------------|
F|-----------7---7-5-7-5---5-------------------------|
C|-----------------------7---7-5-7-5---5---------5-7-|
G|-----------------------------------7---7-5-7-5-----|
C|---------------------------------------------------|

[Ending]
Guitar 1

D|-------------------------------------|
A|-------------------------------------|
F|-------------------------------------|
C|-7-7--2-2--5-5--2-2--3-3--2-2----3-3-| (repeat until end)
G|-7-7--2-2--5-5--2-2--3-3--2-2----3-3-|
C|-7-7--2-2--5-5--2-2--3-3--2-2----3-3-|

Guitar 2 (starts second time through of guitar 1's part)

D|----------------------------------------------------------------------|
A|------10-13p10-------10-13p10--15-13-15-15b-13-10--10-13-15-15b-13-15-|
F|-9-12-----------9-12--------------------------------------------------|
C|----------------------------------------------------------------------|
G|----------------------------------------------------------------------|
C|----------------------------------------------------------------------|

D|-----------------------------------------------|
A|---13-8-10--8-8-8-6-5-5h6p5----10-12-12b-10-12-|
F|-9---------------------------9-----------------|
C|-----------------------------------------------|
G|-----------------------------------------------|
C|-----------------------------------------------|



************************************

| ~  Vibrato
| x  Dead note
| b  Bend
| *  Natural harmonic
| h  Hammer-on
| p  Pull-off

************************************

            
            
Suggest correction
Creating personal tab
Creating personal tab
You can edit any tab online and save it as your Personal.

You can edit, replace or remove any tab part or add personal notes – all changes will be seen only by you.

Personal tabs can be accessed anytime from any device, even offline.
Learn more »
comments
print report bad tab
8 comments total. Showing first comments.
+2 reply
Logan Reid 103 Jun 08, 2012 06:44 AM

While yours is the most accurate, the intro is wrong. It goes like this.

D|----------------|-------------3----------|
A|----------------|--------3---------------|
F|-5----4----2----|---5--------------5-----| x3
C|-2--------------|---2--------------------|
G|------2---------|--------2---------------|
C|-----------3----|-------------5----------|

Just listen to it... You'll see how the way you're playing it is wrong plus you can see in live videos how mine sounds if not identical, very close to it

0 reply
Alexian3007 1,068 Jun 08, 2012 10:20 AM

Yours does sound good and yes i'm sue they play it like this live but on the record, it is my version, many bands change things when live because they may find it sounds better, or just simply its comfier for them to play, thanks anyways ;)

0 reply
Herp4678 10 Apr 12, 2013 04:48 PM

I may sound stupid for asking but what do the x's mean on the chorus?

guest
You may want to rate the tab now too:
select rating
Wanna post a correction for this tab? Suggest correction