Oops, an error
Loading. Please wait.

Braille bass

version 1
version 1

Whole song

Interactive

10,427 views 1 this week
no commentswrite comment
1 2 3 4 5
x 5
add to favorites
×
Save as Personal and add changes to this tab that will be seen only by you. Learn more ›
×
You can save this tab as Personal to edit and correct it or add notes. All changes will be seen only by you. Learn more »
launch autoscroll
font size
0
reset
guitar tuner
edit
Autoscroll
slow
fast
+/-
esc
set tempo
stop
This is just another tab for this song cleaned up with all the mistakes i noticed taken out.
This is what I play, sounds good to me.



Intro

E |--------------------------|
B |-------------------777555-|
F#|--------------------------|
B |-777888444555777888-------|

E |-----------------------------|--------------------------------|
B |-----------------------------|--------------------------------|
F#|----8--7------8--7-----------|-----8--7-----------------------|    X2
B |-0-0--0--0-0-0--0--0-0-0-0-0-|-0-0---0--0-0-0-0-0-0-0-0-0-0-0-|

E |--------------------------------|--------------------|
B |--------------------------------|-------------777555-|
F#|-5----4-5---8---7-------5-------|--------------------|    X2
B |--0-0-----0---0---0-0-0---0-0-0-|-777888444555-------|


Drum Fill (This is in 3/4 timing, so remember to come in after 3 beats, not 4)


Verse 1 (Back into 4/4)

E |----------------------------------|---------------------------------|
B |-5----------------7-----8---------|---7-----------------------------|
F#|--7-----------------8-----8---4-5-|-5-------------------------------|   X4
B |------0-0-0-0-0-0-----0------0----|-----0-0-0-0-0-0-000-0-0-000-0-0-|

Rest (Come back in with vocals)

Chorus X4

E |---------------------|---------------------|
B |-------------7-8-7---|---------------7---6-|
F#|-------8-----------8-|-------5-4-5---------|
B |-0-0-0---0-0---------|-0-0-0-------0---0---|

E |---------------------|-------------------------|
B |-------------7-8-7---|-------------------------|
F#|-------8-----------8-|-------5-4-5-------------|  
B |-0-0-0---0-0---------|-0-0-0-------0-0-0-0-0-0-|


Breakdown x4 (Listen to song to see how many times each note is played)
E |------|--------|------|------------|
B |------|--------|------|------------|
F#|------|--------|------|------------|
B |-0----|-00--0--|-0----|-0--0--0000-|

Rest for 1 bar

Interlude

E |-------------------------|---------------------------------|
B |-------------------------|---------------------------------|
F#|-------8-8-8-7-----------|12-12-12-10-10-10-8-8-8-10-10-10-|   X2
B |-0-0-0---------0-0-0-0-0-|---------------------------------|

E |--------------|--------------|--------------|---------------------|
B |--------------|--------------|--------------|---------------------|
F#|--------------|--------------|--------------|---------------------|
B |-888888888888-|-888888888888-|-777777777777-|-3-2-0-0-2-3-3-2-0-3-|

E |-------------------------|---------------------------------|
B |-------------------------|---------------------------------|
F#|-------8-8-8-7-----------|12-12-12-10-10-10-8-8-8-10-10-10-|   X2
B |-0-0-0---------0-0-0-0-0-|---------------------------------|

E |----------------|
B |----------------|
F#|----------------|   X4 (Listen to song for timings and that)
B |-0000-0000-0000-|

Drum Fill (in 3/4)

Verse x4

Bridge

E |----------|        |----|
B |----------|        |----| 
F#|----------|  X8    |----|
B |-000--000-|        |-0--|

Drum Fill

Tremelo

E |--------------|--------------|-----------------|-----------------|
B |--------------|--------------|-----------------|-----------------|
F#|-8-5--8-5-8-5-|-7-4--7-4-7-4-|-----------------|-----------------|    X4
B |--------------|--------------|-8-8-8-8-8-8-8-8-|-5-5-5-5-7-7-7-7-|


Bridge

E |-----------|-------------|-----------|-----------------|
B |-----------|-------------|-----------|-----------------|
F#|---------5-|---------5-6-|---------1-|-----------------|    X2
B |-0-0-0-0---|-0-0-0-0-----|-0-0-0-0---|-1-4-4-4-0-1-1-1-|

E |--------|
B |--------|
F#|--------|
B |-0---0--|

Chorus

Outro (After "One More Time", listen for timings)

E |------|------|------|------------|
B |------|------|------|------------|
F#|------|------|------|------------|   X4
B |-0----|-0-00-|-0----|-0--0--0000-|

That's pretty much it.
Suggest correction
Creating personal tab
Creating personal tab
You can edit any tab online and save it as your Personal.

You can edit, replace or remove any tab part or add personal notes – all changes will be seen only by you.

Personal tabs can be accessed anytime from any device, even offline.
Learn more »
comments
print report bad tab
guest
You may want to rate the tab now too:
select rating
Wanna post a correction for this tab? Suggest correction