Oops, an error
Loading. Please wait.

Can You Feel My Heart Tab

version 1
version 1

Whole song

113,058 views 381 this week
7 commentsread comments
1 2 3 4 5
x 39
add to favorites
launch autoscroll
font size
0
reset
how to read this tab
guitar tuner
Autoscroll
slow
fast
+/-
esc
set tempo
stop
Help us to improve Ultimate-Guitar.com Take our survey!
×
Author
Tuning
E A D G B E
Standard Tuning

As usual, I suggest you to listen the song for a corret strumming


[Intro]

(Synth)

These are the notes for the intro and the chorus

e|-7-7-7-10-8-7-7---7-10-8-7-7-7-10-8-7-7---7-------|
B|----------------5-----------------------5---5-----|
G|--------------------------------------------------|
D|--------------------------------------------------|
A|--------------------------------------------------|
E|--------------------------------------------------|

These are the chords for the rhythm guitar for the intro and the chorus

e|------------------------------------------|
B|------------------------------------------|
G|-5---2------------------------------------|
D|-5---2---2---2--5-------------------------|
A|-3---0---2---2--5-------------------------|
E|---------0---0--3-------------------------|

In the 2nd verse there is a mini guitar riff

e|-----------------------------------------------------------------|
B|-----------------------------------------------------------------|
G|----------------------------9--9--9--7/4--5~~--------------------|
D|------5--7--9---5h7p5--------------------------7--9--7/5--2~~~~--|
A|---7-------------------7-----------------------------------------|
E|-----------------------------------------------------------------|


[Bridge]

e|----------7--------------7---------------------|
B|--8-----7----5-7-8-----7-----------------------|
G|-----------------------------------------------| Repeat this for the whole bridge
D|-----------------------------------------------|
A|-----------------------------------------------|
E|-----------------------------------------------|


[Chorus]

1st guitar
e|------------------------------------------|
B|------------------------------------------|
G|-5---2------------------------------------|
D|-5---2---2---2--5-------------------------|
A|-3---0---2---2--5-------------------------|
E|---------0---0--3-------------------------|

2nd guitar
e|------------------------------------------|
B|------------------------------------------|
G|--7---------5---4-------------------------|
D|--x---------x---x--------7----------------|
A|--5---------3---2--------x----------------|
E|-------------------------5----------------|



************************************

| x  Dead note
| h  Hammer-on
| p  Pull-off

************************************
Suggest correction
comments
print report bad tab
7 comments total. Showing first comments.
+1 reply
sebaah12 10 Feb 28, 2013 05:24 PM

coool first tab, love you

0 reply
pakopako 788 Mar 01, 2013 05:42 AM

Thank you :D

+7 reply
AlexBL/IND 10 Mar 02, 2013 07:53 AM

The bridge is wrong, no?
I hear it more like this.

e|----------7--------------7---------------------|
B|--8-----7----5-7-8-----7-----------------------|

overall i think you got it, its surprisingly a pretty simple song

guest
You may want to rate the tab now too:
select rating
Wanna post a correction for this tab? Suggest correction