Oops, an error
Loading. Please wait.
We have an official Chelsea Smile tab made by UG professional guitarists. Check out the tab »
×
9,122 views 1 this week
2 commentsread comments
1 2 3 4 5
x 3
add to favorites
×
Save as Personal and add changes to this tab that will be seen only by you. Learn more ›
×
You can save this tab as Personal to edit and correct it or add notes. All changes will be seen only by you. Learn more »
launch autoscroll
font size
0
reset
guitar tuner
backing track
0:00
0:00
edit
Autoscroll
slow
fast
+/-
esc
set tempo
stop
Author
Chelsea Smile by Bring Me the Horizon
Tuning is A#FA#D#. It's 100% right. Trust me.


    E  E  E  E  E  E  E  E     S S E  Q    S S E  E  E     E  E  E  E  S S E  E  E   
|---------------------------|---------------------------|---------------------------|
|*--------------------------|---------------------------|---------------------------|
|*--------------------------|---------------------------|---------------------------|
|---0--0--0--0-----0--0--0--|--0-0-0--0----0-0-0--0--0--|-----0--0--0--0-0-0--0--0--|


  S S E  E  E  S S S S S S S S    E  E  E  E  E  E  E  E     S S E  Q    S S E  E  E   
-------------------------------|--------------------------|---------------------------|
-------------------------------|--------------------------|---------------------------|
-------------------------------|--------------------------|---------------------------|
--0-0-0--0--0--0-0-0-0-0-0-0-0-|--0--0--0--0-----0--0--0--|--0-0-0--0----0-0-0--0--0--|


  W                   E  Q.     E  E  Q         S S E  Q    S S E  E  E     W                 
-------------------|------------------------||---------------------------|-------------------|
-------------------|-----------------------*||---------------------------|-------------------|
-------------------|-----------------------*||---------------------------|-------------------|
-------------------|--0--0------0--0--------||--0-0-0--0----0-0-0--0--0--|--L----------------|


   W                       E   E   E   E  E   E  E  E     E  E  E  E  E  E  E  E   
---------------------||--------------------------------|--------------------------|
---------------------||*-------------------------------|--------------------------|
---------------------||*------15-----------------------|--------------------------|
--19\----------------||---13------13--12--L--12--0--0--|--L--0--x--0--L--0--0--0--|


   E   E   E   E  E   E  E  E     E  Q    E   E   E  E   E      E   E   E   E  E   E  E  E   
-------------------------------|----------------------------|-------------------------------|
-------------------------------|-------------13-------------|-------------------------------|
------15-----------------------|----------------------------|------15-----------------------|
--13------13--12--L--12--x--0--|--L--0----0------13--0--12--|--13------13--12--L--12--x--0--|


  E  E  E  E  E  E  E  E      E   E   E   E   E   E   E   E      E   E   E    E  E   E   Q        
--------------------------|----------------------------------|----------------------------------||
--------------------------|----------------------------------|---------------------------------*||
--------------------------|------15--------------------------|---------------------------------*||
--L--0--0--0--L--0--0--0--|--13------13--13---L--13--13--13--|--13--13--13S--16--L--16--16\-----||


   E   E   E    E  E   E   Q         Q     Q     Q     Q        Q     Q     Q     Q      
---------------------------------|--------------------------|---------------------------|
---------------------------------|--------------------------|---------------------------|
---------------------------------|--------------------------|---------------------------|
--13--13--13S--16--L--16--16\----|--12----12----12----12----|--12----12----12----12S----|


  Q    Q    Q    Q       Q    Q    Q    Q        Q    Q    Q    Q       Q    Q    Q    E  E    
----------------------|-----------------------|----------------------|------------------------|
----------------------|-----------------------|----------------------|------------------------|
----------------------|-----------------------|----------------------|------------------------|
--8----8----8----8----|--8----8----8----8S----|--5----5----5----5----|--5----5----5----5--5S--|


  Q    Q    E  E  Q       E  E  E  E  E  E  E  E     Q    Q    E  E  E  E   
-----------------------|--------------------------|------------------------|
-----------------------|--------------------------|------------------------|
-----------------------|--------------------------|------------------------|
--7----7----7--7--7----|--7--7--7--7--7--7--7--7--|--8----8----8--8--8--5--|


  E  E  E  E  E  E  E  E     E  E   E  E   E   E  E  E     E  E   E  E   E   E  E  E   
--------------------------|-----------------------------|-----------------------------|
--------------------------|-----------------------------|-----------------------------|
--------------------------|-----------------------------|-----------------------------|
--L--0--5--0--5--7--0--0--|--L--0--10--0--10--12--0--0--|--L--0--10--0--10--12--0--8--|


  E  E  Q    E  E  E  E     E  E  E  E  E  E  E  E     E  E  E  E  Q    Q     
-------------------------|--------------------------|------------------------|
-------------------------|--------------------------|------------------------|
-------------------------|--------------------------|------------------------|
--L--8--8----8--8--8--5--|--L--0--5--0--5--7--0--0--|--L--0--0--0--0----0----|


  Q    Q    E  E  E  E     Q    Q    E  E  E  E     E  E  E  E  E  E  E  E   
------------------------|------------------------|--------------------------|
------------------------|------------------------|--------------------------|
------------------------|------------------------|--------------------------|
--0----0----0--0--0--8--|--L----8----8--8--8--5--|--L--0--5--0--5--7--0--0--|


  E  E   E  E   E   E  E  E     E  E   E  E   E   E  E  E     E  E  Q    E  E  E  E   
-----------------------------|-----------------------------|-------------------------|
-----------------------------|-----------------------------|-------------------------|
-----------------------------|-----------------------------|-------------------------|
--L--0--10--0--10--12--0--0--|--L--0--10--0--10--12--0--8--|--L--8--8----8--8--8--5--|


  E  E  E  E  E  E  E  E     E  E  E  E  E  E  E  E     Q    Q    E  E  E  E   
--------------------------|--------------------------|------------------------|
--------------------------|--------------------------|------------------------|
--------------------------|--------------------------|------------------------|
--L--0--5--0--5--7--7--7--|--0--0--0--0-----0--0--0--|--0----0----0--0--0--0--|


  E  E  E  E  Q    Q       E  E  Q    E  E  E  E        E   E  E   E  E  E  E  E   
------------------------|-------------------------||------------------------------|
------------------------|-------------------------||*-----------------------------|
------------------------|-------------------------||*-----------------------------|
-----0--0--0--0---------|--0--0-------0--0--0--0--||---12--10--0--10--L--0--0--0--|


  E  E  Q    E  E  E  E      E   E  E   E  E  E   E  E      E   E  E   E  E  E   E  E   
-------------------------|------------------------------|------------------------------|
-------------------------|------------------------------|------------------------------|
-------------------------|------------------------------|------------------------------|
-----0--0----0--0--0--0--|--12--10--0--10--L--0--10--0--|--12--10--0--13--L--0--13--0--|


   E   E  E   E  E  E  E  E     E  E  Q    E  E  E  E     E  E  E  E   E  E  E   E   
-----------------------------|-------------------------|----------------------------|
-----------------------------|-------------------------|----------------------------|
-----------------------------|-------------------------|--5-------------------------|
--12--10--0--10--L--0--0--0--|-----0--0----0--0--0--0--|-----6--0--5p--0--0--3p--0--|


  E  E  E  E  E   E  E  E        E   E  E   E  E  E  E  E     E  E  Q    E  E  E  E   
----------------------------||-----------------------------|-------------------------|
---------------------------*||-----------------------------|-------------------------|
---------------------------*||-----------------------------|-------------------------|
--0--3--5--0--3s--6--6--6---||--12--10--0--10--L--0--0--0--|-----0--0----0--0--0--0--|


  E  E  E  E   E  E  E   E     E  E  E  E  E   E  E  E        E   E   E   E  E   E  E  E   
----------------------------|---------------------------||--------------------------------|
----------------------------|---------------------------||*-------------------------------|
--5-------------------------|---------------------------||*------15-----------------------|
-----6--0--5p--0--0--3p--0--|--0--3--5--0--3s--6--6--6--||---13------13--12--L--12--0--0--|


  E  E  E  E  E  E  E  E      E   E   E   E  E   E  E  E     E  Q    E   E   E  E   E   
--------------------------|-------------------------------|----------------------------|
--------------------------|-------------------------------|-------------13-------------|
--------------------------|------15-----------------------|----------------------------|
--L--0--x--0--L--0--0--0--|--13------13--12--L--12--x--0--|--L--0----0------13--0--12--|


   E   E   E   E  E   E  E  E     E  E  E  E  E  E  E  E      E   E   E   E  E   E   E   E   
-------------------------------|--------------------------|---------------------------------|
-------------------------------|--------------------------|---------------------------------|
------15-----------------------|--------------------------|------15-------------------------|
--13------13--12--L--12--x--0--|--L--0--0--0--L--0--0--0--|--13------13--13--L--13--13--13--|


   E   E   E    E  E   E   Q           E   E   E    E  E   E   Q        W                 
----------------------------------||---------------------------------|-------------------|
---------------------------------*||---------------------------------|-------------------|
---------------------------------*||---------------------------------|-------------------|
--13--13--13S--16--L--16--16\-----||--13--13--13S--16--L--16--16\----|-------------------|


  W                   W                   W                   W                   W
-------------------|-------------------|-------------------|-------------------|-----------------|
-------------------|-------------------|-------------------|-------------------|-----------------|
-------------------|-------------------|-------------------|-------------------|-----------------|
-------------------|-------------------|-------------------|-------------------|-----------------|


  W                   W                   H           E  S S S S S S Q    E   E   
-------------------|-------------------|-----------|-----------------------------|
-------------------|-------------------|-----------|-----------------------------|
-------------------|-------------------|-----------|-----------------------------|
-------------------|-------------------|-----------|--1--0-0-L-0-0-0-4----Lb--L--|


  E  S S E  E  H           E  S S S S S S Q    E   E     E  S S E  E  H         
------------------------|-----------------------------|------------------------|
------------------------|-----------------------------|------------------------|
------------------------|-----------------------------|------------------------|
--1--0-0-0--0-----------|--1--0-0-L-0-0-0-4----Lb--L--|--1--0-0-0--0-----------|


  E  S S S S S S Q    E   E     E  S S E  E  H           E  S S S S S S Q    E   E   
-----------------------------|------------------------|-----------------------------|
-----------------------------|------------------------|-----------------------------|
-----------------------------|------------------------|-----------------------------|
--1--0-0-L-0-0-0-4----Lb--L--|--1--0-0-0--0-----------|--1--0-0-L-0-0-0-4----Lb--L--|


  E  S S E  E  H           W                 Q       S S S S S S S S S S S S S S S S  
------------------------|-------------------------|----------------------------------|
------------------------|-------------------------|----------------------------------|
------------------------|-------------------------|----------------------------------|
--1--0-0-0--0-----------|--8\----------------L----|--8-8-8-8-8-8-8-8-8-8-8-8-8-8-8-8-|


   S  S  S  S  S  S  S  S  S  S  S  S  S  S  S  S  
--------------------------------------------------|
--------------------------------------------------|
--------------------------------------------------|
--10-10-10-10-10-10-10-10-10-10-10-10-10-10-10-10-|


   S  S  S  S  S  S  S  S  S  S  S  S  S  S  S  S  
--------------------------------------------------|
--------------------------------------------------|
--------------------------------------------------|
--12-12-12-12-12-12-12-12-12-12-12-12-12-12-12-12-|


   S  S  S  S  S  S  S  S  S  S  S  S  S  S  S  S    S S S S S S S S S S S S S S S S  
--------------------------------------------------|----------------------------------|
--------------------------------------------------|----------------------------------|
--------------------------------------------------|----------------------------------|
--12-12-12-12-12-12-12-12-12-12-12-12-12-12-12-12-|--8-8-8-8-8-8-8-8-8-8-8-8-8-8-8-8-|


   S  S  S  S  S  S  S  S  S  S  S  S  S  S  S  S    S S S S S S S S S S S S S S S S  
--------------------------------------------------|----------------------------------|
--------------------------------------------------|----------------------------------|
--------------------------------------------------|----------------------------------|
--10-10-10-10-10-10-10-10-10-10-10-10-10-10-10-10-|--5-5-5-5-5-5-5-5-5-5-5-5-5-5-5-5-|


  S S S S S S S S S S S S S S S S     S  S  S  S  S  S  S  S  S  S  S  S  S  S  S  S  
----------------------------------|--------------------------------------------------|
----------------------------------|--------------------------------------------------|
----------------------------------|--------------------------------------------------|
--5-5-5-5-5-5-5-5-5-5-5-5-5-5-5-5-|--12-12-12-12-12-12-12-12-12-12-12-12-12-12-12-12-|


   S  S  S  S  S  S  S  S  S  S  S  S  S  S  S  S  
--------------------------------------------------|
--------------------------------------------------|
--------------------------------------------------|
--12-12-12-12-12-12-12-12-12-12-12-12-12-12-12-12-|


   S  S  S  S  S  S  S  S  S  S  S  S  S  S  S  S  
--------------------------------------------------|
--------------------------------------------------|
--------------------------------------------------|
--10-10-10-10-10-10-10-10-10-10-10-10-10-10-10-10-|


   S  S  S  S  S  S  S  S  S  S  S  S  S  S  S  S  
--------------------------------------------------|
--------------------------------------------------|
--------------------------------------------------|
--10-10-10-10-10-10-10-10-10-10-10-10-10-10-10-10-|


   S  S  S  S  S  S  S  S  S  S  S  S  S  S  S  S  
--------------------------------------------------|
--------------------------------------------------|
--------------------------------------------------|
--12-12-12-12-12-12-12-12-12-12-12-12-12-12-12-12-|


   S  S  S  S  S  S  S  S  S  S  S  S  S  S  S  S  
--------------------------------------------------|
--------------------------------------------------|
--------------------------------------------------|
--12-12-12-12-12-12-12-12-12-12-12-12-12-12-12-12-|


   S  S  S  S  S  S  S  S  S  S  S  S  S  S  S  S  
--------------------------------------------------|
--------------------------------------------------|
--------------------------------------------------|
--10-10-10-10-10-10-10-10-10-10-10-10-10-10-10-10-|


   S  S  S  S  S  S  S  S  S  S  S  S  S  S  S  S     W                   W                 
--------------------------------------------------|--------------------|-------------------|
--------------------------------------------------|--------------------|-------------------|
--------------------------------------------------|--------------------|-------------------|
--10-10-10-10-10-10-10-10-10-10-10-10-10-10-10-10-|--12----------------|-------------------|


  W                   W                   W                   W                   W
-------------------|-------------------|-------------------|-------------------|----------------|
-------------------|-------------------|-------------------|-------------------|----------------|
-------------------|-------------------|-------------------|-------------------|----------------|
-------------------|-------------------|-------------------|-------------------|----------------|


  W                   W                   W                   W                   W
-------------------|-------------------|-------------------|-------------------|----------------|
-------------------|-------------------|-------------------|-------------------|----------------|
-------------------|-------------------|-------------------|-------------------|----------------|
-------------------|-------------------|-------------------|-------------------|----------------|


  W                   W                   W                   W                   W
-------------------|-------------------|-------------------|-------------------|----------------|
-------------------|-------------------|-------------------|-------------------|----------------|
-------------------|-------------------|-------------------|-------------------|----------------|
-------------------|-------------------|-------------------|-------------------|----------------|


  W                   W                   W                   W                   W
-------------------|-------------------|-------------------|-------------------|----------------|
-------------------|-------------------|-------------------|-------------------|----------------|
-------------------|-------------------|-------------------|-------------------|----------------|
-------------------|-------------------|-------------------|-------------------|----------------|


                                            <                                                    
  W                   W                     E  E  E  E  E  E  E  E     S S E  Q    S S E  E  E   
-------------------|-------------------||---------------------------|---------------------------|
-------------------|-------------------||*--------------------------|---------------------------|
-------------------|-------------------||*--------------------------|---------------------------|
-------------------|-------------------||---0--0--0--0-----0--0--0--|--0-0-0--0----0-0-0--0--0--|


  E  E  E  E  S S E  E  E     S S E  E  E  S S S S S S S S    E  E  E  E  E  E  E  E   
---------------------------|-------------------------------|--------------------------|
---------------------------|-------------------------------|--------------------------|
---------------------------|-------------------------------|--------------------------|
-----0--0--0--0-0-0--0--0--|--0-0-0--0--0--0-0-0-0-0-0-0-0-|--0--0--0--0-----0--0--0--|


  S S E  Q    S S E  E  E     W                   E  Q.     E  E  Q       
---------------------------|-------------------|------------------------||
---------------------------|-------------------|-----------------------*||
---------------------------|-------------------|-----------------------*||
--0-0-0--0----0-0-0--0--0--|-------------------|--0--0------0--0--------||


  S S E  Q    S S E  E  E     W                    W                    W
---------------------------|-------------------|---------------------|-------------------|
---------------------------|-------------------|---------------------|-------------------|
---------------------------|-------------------|---------------------|-------------------|
--0-0-0--0----0-0-0--0--0--|--L----------------|--19\----------------|-------------------|


  W                   W                   W                   W                   W
-------------------|-------------------|-------------------|-------------------|----------------|
-------------------|-------------------|-------------------|-------------------|----------------|
-------------------|-------------------|-------------------|-------------------|----------------|
-------------------|-------------------|-------------------|-------------------|----------------|


  E  E  E  E   E  E  E   E     E  E  E  E  E   E  E  E      E   E  E   E  E  E  E  E   
----------------------------|---------------------------|-----------------------------|
----------------------------|---------------------------|-----------------------------|
--5-------------------------|---------------------------|-----------------------------|
-----6--0--5p--0--0--3p--0--|--0--3--5--0--3s--6--6--6--|--12--10--0--10--L--0--0--0--|


  E  E  Q    E  E  E  E      E   E  E   E  E  E   E  E      E   E  E   E  E  E   E  E   
-------------------------|------------------------------|------------------------------|
-------------------------|------------------------------|------------------------------|
-------------------------|------------------------------|------------------------------|
-----0--0----0--0--0--0--|--12--10--0--10--L--0--10--0--|--12--10--0--13--L--0--13--0--|


   E   E  E   E  E  E  E  E     E  E  Q    E  E  E  E     E  E  E  E   E  E  E   E   
-----------------------------|-------------------------|----------------------------|
-----------------------------|-------------------------|----------------------------|
-----------------------------|-------------------------|--5-------------------------|
--12--10--0--10--L--0--0--0--|-----0--0----0--0--0--0--|-----6--0--5p--0--0--3p--0--|


  E  E  E  E  E   E  E  E      E   E  E   E  E  E  E  E     E  E  Q    E  E  E  E   
---------------------------|-----------------------------|-------------------------|
---------------------------|-----------------------------|-------------------------|
---------------------------|-----------------------------|-------------------------|
--0--3--5--0--3s--6--6--6--|--12--10--0--10--L--0--0--0--|-----0--0----0--0--0--0--|


   E   E  E   E  E  E   E  E      E   E  E   E  E  E   E  E      E   E  E   E  E  E  E  E   
------------------------------|------------------------------|-----------------------------|
------------------------------|------------------------------|-----------------------------|
------------------------------|------------------------------|-----------------------------|
--12--10--0--10--L--0--10--0--|--12--10--0--13--L--0--13--0--|--12--10--0--10--L--0--0--0--|


  E  E  Q    E  E  E  E     W                   W                   Q    Q    H          
-------------------------|-------------------|-------------------|---------------------||
-------------------------|-------------------|-------------------|---------------------||
-------------------------|-------------------|-------------------|---------------------||
-----0--0----0--0--0--0--|-------------------|-------------------|--0------------------||




Duration Legend
---------------
W - whole
H - half
Q - quarter
E - 8th
S - 16th
T - 32nd
X - 64th
. - note dotted
|-n-|  - n-tuplets


Tablature Legend
----------------
L - tied note
x - dead note
g - grace note
(n) - ghost note
> - accentuded note
NH - natural harmonic
AH - artificial harmonic
TH - tapped harmonic
SH - semi harmonic
PH - pitch harmonic
h - hammer on
p - pull off
b - bend
br - bendRelease
pb - preBend
pbr - preBendRelease
brb - bendReleaseBend
\n/ - tremolo bar dip
\n - tremolo bar dive
-/n - tremolo bar Release up
/n\ - tremolo bar inverted dip
/n - tremolo bar return
-\n - tremolo bar Release down
S - shift slide
s - legato slide
/ -  slide into from below or out of upwards
\ -  slide into from above or out of downwards
~ - vibrato
W - wide vibrato
tr - trill
TP - tremolo picking
T - tapping
S - slap
P - pop
< - fade in
^ - brush up
v - brush down

            
            
Suggest correction
Creating personal tab
Creating personal tab
You can edit any tab online and save it as your Personal.

You can edit, replace or remove any tab part or add personal notes – all changes will be seen only by you.

Personal tabs can be accessed anytime from any device, even offline.
Learn more »
Give kudos to tab author, rate the tab!
1 2 3 4 5
comments
print report bad tab
2 comments total.
0 reply
tom the ginger 31 May 06, 2010 01:49 PM

seems pretty tight, but whats the tuning? the other one says drop a#, but that seems too extreme.

0 reply
guitarandbass95 103 Aug 31, 2014 07:12 PM

It's definitely drop A#

guest
You may want to rate the tab now too:
select rating
Wanna post a correction for this tab? Suggest correction