Oops, an error
Loading. Please wait.
We have an official Follow You tab made by UG professional guitarists. Check out the tab »
×
45,957 views 306 this week
2 commentsread comments
1 2 3 4 5
x 26
add to favorites
×
Save as Personal and add changes to this tab that will be seen only by you. Learn more ›
×
You can save this tab as Personal to edit and correct it or add notes. All changes will be seen only by you. Learn more »
launch autoscroll
font size
0
reset
how to read this tab
guitar tuner
edit
Autoscroll
slow
fast
+/-
esc
set tempo
stop
Bring Me The Horizon - Follow You

Tuning: Eb standard (Half Step Down)


[Intro]

D#|----------|
A#|----10----|
F#|--9----9--|
C#|----------| x8
G#|----------|
D#|----------|


[Verse]

D#|-----------------------------------------------------------------------|
A#|----10------10-8----10-------10h12-----10------10-8----10--------------|
F#|--9----9--9-------9----9-7h9---------9----9--9-------9----9-7h9p7------|
C#|------------------------------------------------------------------5h7--| x4
G#|-----------------------------------------------------------------------|
D#|-----------------------------------------------------------------------|


[Pre-Chorus]

Guitar 1

D#|----------------------------|
A#|----------------------------|
F#|----------------------------|
C#|--0--2---4--5--7--9---4--5--| x2
G#|--2--3---5--7--9--10--5--7--|
D#|----------------------------|

Guitar 2 
  
D#|----------<12>---------------<12>---------|
A#|--<7>---------------<7>-------------------|  (Starts second time through Guitar 1's part)
F#|------<7>------<5>------<7>---------------|
C#|------------------------------------------| x2
G#|------------------------------------------|
D#|------------------------------------------|


[Chorus]

Guitar 1

D#|-----------------------------------------------------------------------|
A#|----10------10-8----10-------10h12-----10------10-8----10--------------|
F#|--9----9--9-------9----9-7h9---------9----9--9-------9----9-7h9p7------|
C#|------------------------------------------------------------------5h7--| x4
G#|-----------------------------------------------------------------------|
D#|-----------------------------------------------------------------------|

Guitar 2

Bm C Em D x4


[Interlude]

(after Chorus)

D#|-------------------------------|
A#|-------------------------------|
F#|-------------------------------|
C#|--5-7-9--4-5-7---5-7-9--4-5-7--|
G#|---------------7---------------|
D#|-------------------------------|


[Verse 2]

Guitar 1

D#|-------------------|
A#|-------------------|
F#|-------------------| x4
C#|-----5-7-9--4-5-7--|
G#|--7----------------|
D#|-------------------|

Guitar 2

D#|-------------------------|
A#|---------10-12-------10--|
F#|--9---12-------11-12-----|
C#|-------------------------| x4
G#|-------------------------|
D#|-------------------------|


[Chorus 2]

Guitar 1

D#|-----------------------------------------------------------------------|
A#|----10------10-8----10-------10h12-----10------10-8----10--------------|
F#|--9----9--9-------9----9-7h9---------9----9--9-------9----9-7h9p7------|
C#|------------------------------------------------------------------5h7--| x8
G#|-----------------------------------------------------------------------|
D#|-----------------------------------------------------------------------|

Guitar 2

Bm C Em D x8

"I Will Follow You"


Guitar 1

D#|-------------------------------|
A#|--10h12-------10h12------------|
F#|--------9h12--------9h12--9p7--|
C#|-------------------------------| x4
G#|-------------------------------|
D#|-------------------------------|

Guitar 2

Bm C Em D x4


[End]

Guitar 1

Bm C Em D x2

D#|-------------------------------|
A#|--10h12-------10h12------------|
F#|--------9h12--------9h12--9p7--|
C#|-------------------------------| x2
G#|-------------------------------|
D#|-------------------------------|

Guitar 2

Bm C Em D x4


***********************************
| h   Hammer-on
| p   Pull-off
| ~   Vibrato
| <>  Natural Harmonic
*******************************

            
            
Suggest correction
Creating personal tab
Creating personal tab
You can edit any tab online and save it as your Personal.

You can edit, replace or remove any tab part or add personal notes – all changes will be seen only by you.

Personal tabs can be accessed anytime from any device, even offline.
Learn more »
comments
print report bad tab
2 comments total.
+1 reply
dylanmccaig1 10 Jul 27, 2016 09:09 PM

nice tab mate

+1 reply
andrew.jackson. 50 Dec 20, 2016 06:42 AM

Fits very well when you plays over the original, congrats. :)

guest
You may want to rate the tab now too:
select rating
Wanna post a correction for this tab? Suggest correction