Oops, an error
Loading. Please wait.
We have an official Happy Song tab made by UG professional guitarists. Check out the tab »
×
58,583 views 180 this week
1 commentread comment
1 2 3 4 5
x 23
add to favorites
×
Save as Personal and add changes to this tab that will be seen only by you. Learn more ›
×
You can save this tab as Personal to edit and correct it or add notes. All changes will be seen only by you. Learn more »
launch autoscroll
font size
0
reset
how to read this tab
guitar tuner
edit
Autoscroll
slow
fast
+/-
esc
set tempo
stop
HAPPY SONG - Bring Me The Horizon
Tabbed by: Will Ventres
E-mail: ventreswill@gmail.com
Guitar Cover! - http://youtu.be/Mu0ClN0sO80
Tuning: Drop C 
Tempo: 172

[VERSE]
D|---------------------------------------------------------------------------|
A|---------------------------------------------------------------------------|
F|---------------------------------------------------------------------------|
C|---------------------------------------------------------------------------|
G|-----------15-17------------------------------15-17------------------------|
C|-18-p0-0-0-------0----0-0-15-p0-0-0-18-p0-0-0-------0------0-0-0-3-/5-5-5--|

D|---------------------------------------------------------------------------|
A|---------------------------------------------------------------------------|
F|---------------------------------------------------------------------------|
C|---------------------------------------------------------------------------|
G|-----------15-17------------------------------15-17------------------------|
C|-18-p0-0-0-------0----0-0-15-p0-0-0-18-p0-0-0-------0---------0-0-0--3-3---|

[CHORUS]
D|---------------------------------------------------------------------------|
A|---------------------------------------------------------------------------|
F|---------------------------------------------------------------------------|
C|---------------------------------------------------------------------------| X2
G|-----------3-5------------------------------3-5------------3-/5-5-5--------|
C|--6-p0-0-0-----0----0-0-0-3-p0-0-0-6-p0-0-0-----0----0-0-0-3-/5-5-5--------|

[VERSE]
D|---------------------------------------------------------------------------|
A|---------------------------------------------------------------------------|
F|---------------------------------------------------------------------------|
C|---------------------------------------------------------------------------|
G|-----------15-17------------------------------15-17------------------------|
C|-18-p0-0-0-------0----0-0-15-p0-0-0-18-p0-0-0-------0------0-0-0-3-/5-5-5--|

D|---------------------------------------------------------------------------|
A|---------------------------------------------------------------------------|
F|---------------------------------------------------------------------------|
C|---------------------------------------------------------------------------|
G|-----------15-17------------------------------15-17------------------------|
C|-18-p0-0-0-------0----0-0-15-p0-0-0-18-p0-0-0-------0---------0-0-0--3-3---|

[CHORUS]
D|---------------------------------------------------------------------------|
A|---------------------------------------------------------------------------|
F|---------------------------------------------------------------------------|
C|---------------------------------------------------------------------------| X2
G|-----------3-5------------------------------3-5------------3-/5-5-5--------|
C|--6-p0-0-0-----0----0-0-0-3-p0-0-0-6-p0-0-0-----0----0-0-0-3-/5-5-5--------|

[VERSE]
D|---------------------------------------------------------------------------|
A|---------------------------------------------------------------------------|
F|---------------------------------------------------------------------------|
C|---------------------------------------------------------------------------|
G|-----------15-17------------------------------15-17------------------------|
C|-18-p0-0-0-------0----0-0-15-p0-0-0-18-p0-0-0-------0------0-0-0-3-/5-5-5--|

D|---------------------------------------------------------------------------|
A|---------------------------------------------------------------------------|
F|---------------------------------------------------------------------------|
C|---------------------------------------------------------------------------|
G|-----------15-17------------------------------15-17------------------------|
C|-18-p0-0-0-------0----0-0-15-p0-0-0-18-p0-0-0-------0---------0-0-0--3-3---|

[CHORUS]
D|---------------------------------------------------------------------------|
A|---------------------------------------------------------------------------|
F|---------------------------------------------------------------------------|
C|---------------------------------------------------------------------------| X2
G|-----------3-5------------------------------3-5------------3-/5-5-5--------|
C|--6-p0-0-0-----0----0-0-0-3-p0-0-0-6-p0-0-0-----0----0-0-0-3-/5-5-5--------|

[Post Chorus]
D|---------------------------------------------------------------------------|
A|---------------------------------------------------------------------------|
F|---------------------------------------------------------------------------|
C|-8-8-8-8-8-10-10-0-0-0-0-0-0-3-3-5-5-5-5-5-5-3-3-5-5-5-5-5-5-5-5-5---------| X2
G|-8-8-8-8-8-10-10-0-0-0-0-0-0-3-3-5-5-5-5-5-5-3-3-5-5-5-5-5-5-5-5-5---------|
C|-8-8-8-8-8-10-10-0-0-0-0-0-0-3-3-5-5-5-5-5-5-3-3-5-5-5-5-5-5-5-5-5---------|

[CHORUS]
D|---------------------------------------------------------------------------|
A|---------------------------------------------------------------------------|
F|---------------------------------------------------------------------------|
C|---------------------------------------------------------------------------| X2
G|-----------3-5------------------------------3-5------------3-/5-5-5--------|
C|--6-p0-0-0-----0----0-0-0-3-p0-0-0-6-p0-0-0-----0----0-0-0-3-/5-5-5--------|

[Verse feedback option]
D|-13~~~~~~~~~~~~~~----------------------------------------------------------|
A|---------------------------------------------------------------------------|
F|-----------------------------------10~~~~~~------9~~~~~~~~-------7-~~~~~---|
C|---------------------------------------------------------------------------|
G|---------------------------------------------------------------------------|
C|---------------------------------------------------------------------------|

[CHORUS]
D|---------------------------------------------------------------------------|
A|---------------------------------------------------------------------------|
F|---------------------------------------------------------------------------|
C|---------------------------------------------------------------------------| X2
G|-----------3-5------------------------------3-5------------3-/5-5-5--------|
C|--6-p0-0-0-----0----0-0-0-3-p0-0-0-6-p0-0-0-----0----0-0-0-3-/5-5-5--------|

[Post Chorus]
D|---------------------------------------------------------------------------|
A|---------------------------------------------------------------------------|
F|---------------------------------------------------------------------------|
C|-8-8-8-8-8-10-10-0-0-0-0-0-0-3-3-5-5-5-5-5-5-3-3-5-5-5-5-5-5-5-5-5---------| X2
G|-8-8-8-8-8-10-10-0-0-0-0-0-0-3-3-5-5-5-5-5-5-3-3-5-5-5-5-5-5-5-5-5---------|
C|-8-8-8-8-8-10-10-0-0-0-0-0-0-3-3-5-5-5-5-5-5-3-3-5-5-5-5-5-5-5-5-5---------|

[Breakdown]
D|---------------------------------------------------------------------------|
A|---------------------------------------------------------------------------|
F|---------------------------------------------------------------------------|
C|---------------------------------------------------------------------------|
G|---------------------------------------------------------------------------|
C|-0---0---0-0--0--0--15-15-0-0--0-15--0-0-0-15-0-0-12-13-12-10--------------|

D|---------------------------------------------------------------------------|
A|---------------------------------------------------------------------------|
F|---------------------------------------------------------------------------|
C|---------------------------------------------------------------------------|
G|---------------------------------------------------------------------------|
C|-0---0---0-0--0--0--15-15-0-0--0-15--0-0-0-15-0-0-15-15-15-15--------------|

[Breakdown pt 2 (cue lead)]
D|---------------------------------------------------------------------------|
A|---------------------------------------------------------------------------|
F|---------------------------------------------------------------------------|
C|---------------------------------------------------------------------------|
G|---------------------------------------------------------------------------|
C|-x0-0---x0-0---x0-0-x0-0-x0-0-15--x0-0-x0-0-15--x0-0-x0-15-x0-0-12-13-12-10|

D|---------------------------------------------------------------------------|
A|---------------------------------------------------------------------------|
F|---------------------------------------------------------------------------|
C|---------------------------------------------------------------------------|
G|---------------------------------------------------------------------------|
C|-x0-0---x0-0---x0-0-x0-0-x0-0-15--x0-0-x0-0-15--x0-0-x0-15-x0-0-15-15-15-15|

D|------------------------|
A|------------------------|
F|------------------------|
C|------------------------|
G|------------------------|
C|-15-15-15-15-15\----15\-|

[Breakdown Lead (Starts in 2nd half)]
D|--------------------------------------------------------------16--16--16-16|
A|-------------------------------------------------------15---15-----15-15-15|
F|-7-----5----------------------------7----10----13---13----13-----13-13-1313|
C|------------pb(6)5(6)5-3-5-6-5-3-0-----------------------------------------|
G|---------------------------------------------------------------------------|
C|---------------------------------------------------------------------------|
The end of this lead part turns into noise

************************************

| p    Pull-off
| /    Slide up
| ~    Vibrato
| x    Dead note
| \    Slide down
| (n)  Ghost note

************************************

            
            
Suggest correction
Creating personal tab
Creating personal tab
You can edit any tab online and save it as your Personal.

You can edit, replace or remove any tab part or add personal notes – all changes will be seen only by you.

Personal tabs can be accessed anytime from any device, even offline.
Learn more »
comments
print report bad tab
1 comment total.
0 reply
jbenji 10 Apr 22, 2017 09:17 PM

👍

guest
You may want to rate the tab now too:
select rating
Wanna post a correction for this tab? Suggest correction