Oops, an error
Loading. Please wait.

Happy Song tab

version 3
version 3

Whole song

Interactive

2,662 views 9 this week
2 commentsread comments
1 2 3 4 5
x 6
add to favorites
×
Save as Personal and add changes to this tab that will be seen only by you. Learn more ›
×
You can save this tab as Personal to edit and correct it or add notes. All changes will be seen only by you. Learn more »
launch autoscroll
font size
0
reset
how to read this tab
guitar tuner
edit
Autoscroll
slow
fast
+/-
esc
set tempo
stop
BMTH - Happy Song 
Tuning: Drop C
For ideas of rhythm check out: https://www.youtube.com/watch?v=ho6Qk8r0amM


[Introduction]
 
Rhythm
("S-P-I-R-I-T....")
D|------------------------------------------------------------|
A|------------------------------------------------------------|
F|------------------------------------------------------------|
C|------------------------------------------------------------| x4
G|------------------------------------------------------------| 
C|-3-p0-0-0-10-12-0-0-0-3-0-0----3-p0-0-0-10-12-0-0-0-3-5-5-5-|

No lead


[Verse]

Rhythm
D|------------------------------------------------------------|
A|------------------------------------------------------------|
F|------------------------------------------------------------|
C|------------------------------------------------------------| x4
G|------------------------------------------------------------| 
C|-3-p0-0-0-10-12-0-0-0-3-0-0----3-p0-0-0-10-12-0-0-0-3-5-5-5-|

Lead (melody)
D|---------------------------------------|
A|---------------------------------------|
F|---------------------------------------|
C|-7^-3/5/7---3/5/7-8-7/5---3/5/7-8-7/5--|
G|---------------------------------------|
C|---------------------------------------|


[Pre Chorus]

Rhythm 
("but if I sing along...")
D|------------------------------------------------------------|
A|------------------------------------------------------------|
F|------------------------------------------------------------|
C|------------------------------------------------------------| x4
G|------------------------------------------------------------|
C|-3-p0-0-0-10-12-0-0-0-3-0-0----3-p0-0-0-10-12-0-0-0-3-5-5-5-|

Lead
D|-------------------------------------------------------------------------|
A|-------13-13---------------------------------13-13-----------------------|
F|-------------14˅-12-12-12-12-14-12/10-12-10--------14˅-12-12-12-12-14----|
C|-3-5-3----------------------------------------------------------------12-|
G|-------------------------------------------------------------------------|
C|-------------------------------------------------------------------------|


[Verse]

Rhythm
("you want to give...")
D|------------------------------------------------------------|
A|------------------------------------------------------------|
F|------------------------------------------------------------|
C|------------------------------------------------------------| x4
G|------------------------------------------------------------| 
C|-3-p0-0-0-10-12-0-0-0-3-0-0----3-p0-0-0-10-12-0-0-0-3-5-5-5-|

Lead
D|---------------------------------------|
A|---------------------------------------|
F|---------------------------------------|
C|-7^-3/5/7---3/5/7-8-7/5---3/5/7-8-7/5--|
G|---------------------------------------|
C|---------------------------------------|


[Pre Chorus]

Rhythm 
("but if you sing along...")
D|------------------------------------------------------------|
A|------------------------------------------------------------|
F|------------------------------------------------------------|
C|------------------------------------------------------------| x4
G|------------------------------------------------------------|
C|-3-p0-0-0-10-12-0-0-0-3-0-0----3-p0-0-0-10-12-0-0-0-3-5-5-5-|

Lead
D|-------------------------------------------------------------------------|
A|-------13-13---------------------------------13-13-----------------------|
F|-------------14˅-12-12-12-12-14-12/10-12-10--------14˅-12-12-12-12-14----|
C|-3-5-3----------------------------------------------------------------12-|
G|-------------------------------------------------------------------------|
C|-------------------------------------------------------------------------|


[Chorus]

Rhythm 
(riff starts at “every now and again…” and repeats at “and I really wish…”)
D|---------------------------------------------------------------------------|
A|---------------------------------------------------------------------------|
F|---------------------------------------------------------------------------|
C|-8-8-8-8-8-10-10-0-0-0-0-0-0-3-3-5-5-5-5-5-5-3-3-5-5-5-5-5-5-5-5-5---------| x2
G|-8-8-8-8-8-10-10-0-0-0-0-0-0-3-3-5-5-5-5-5-5-3-3-5-5-5-5-5-5-5-5-5---------|
C|-8-8-8-8-8-10-10-0-0-0-0-0-0-3-3-5-5-5-5-5-5-3-3-5-5-5-5-5-5-5-5-5---------|

Lead
(“coz every now and again…”)
D|-----------------------------------------------------------|
A|-----------------------------------------------------------|
F|-14-14-14-15-14----------17-14--14-14-14-15-14-------------|
C|----------------17-15-12-----------------------17-15-12-15-|
G|-----------------------------------------------------------|
C|-----------------------------------------------------------|

(“and I really wish…”)
D|----------------------------|
A|----------------------------|
F|----------------14-12-------|
C|-12-12-12-12-12-------15-15-| x2
G|----------------------------|
C|----------------------------|

(“and I’m going round…”)
D|-------------------------|
A|-------------------------|
F|-------14-14-14-15-14-12-|
C|-12-12-------------------| x2
G|-------------------------|
C|-------------------------|


[Interlude]

Rhythm
("S-P-I-R-I-T...")
D|------------------------------------------------------------|
A|------------------------------------------------------------|
F|------------------------------------------------------------|
C|------------------------------------------------------------| x4
G|------------------------------------------------------------| 
C|-3-p0-0-0-10-12-0-0-0-3-0-0----3-p0-0-0-10-12-0-0-0-3-5-5-5-|

No lead


[Verse 2]

No rhythm

Lead
D|---------------------------------------|
A|---------------------------------------|
F|---------------------------------------|
C|-7^-3/5/7---3/5/7-8-7/5---3/5/7-8-7/5--|
G|---------------------------------------|
C|---------------------------------------|


[Pre Chorus]

Rhythm 
D|------------------------------------------------------------|
A|------------------------------------------------------------|
F|------------------------------------------------------------|
C|------------------------------------------------------------| x2
G|------------------------------------------------------------|
C|-3-p0-0-0-10-12-0-0-0-3-0-0----3-p0-0-0-10-12-0-0-0-3-5-5-5-|

Lead
D|-------------------------------------------------------------------------|
A|-------13-13---------------------------------13-13-----------------------|
F|-------------14˅-12-12-12-12-14-12/10-12-10--------14˅-12-12-12-12-14----|
C|-3-5-3----------------------------------------------------------------12-|
G|-------------------------------------------------------------------------|
C|-------------------------------------------------------------------------|

[Chorus]

Rhythm 
(riff starts at “every now and again…” and repeats at “and I really wish…”)
D|---------------------------------------------------------------------------|
A|---------------------------------------------------------------------------|
F|---------------------------------------------------------------------------|
C|-8-8-8-8-8-10-10-0-0-0-0-0-0-3-3-5-5-5-5-5-5-3-3-5-5-5-5-5-5-5-5-5---------| x2
G|-8-8-8-8-8-10-10-0-0-0-0-0-0-3-3-5-5-5-5-5-5-3-3-5-5-5-5-5-5-5-5-5---------|
C|-8-8-8-8-8-10-10-0-0-0-0-0-0-3-3-5-5-5-5-5-5-3-3-5-5-5-5-5-5-5-5-5---------|

Lead
(“coz every now and again…”)
D|-----------------------------------------------------------|
A|-----------------------------------------------------------|
F|-14-14-14-15-14----------17-14--14-14-14-15-14-------------|
C|----------------17-15-12-----------------------17-15-12-15-|
G|-----------------------------------------------------------|
C|-----------------------------------------------------------|

(“and I really wish…”
D|----------------------------|
A|----------------------------|
F|----------------14-12-------|
C|-12-12-12-12-12-------15-15-| x2
G|----------------------------|
C|----------------------------|

(“and I’m going round…”)
D|-------------------------|
A|-------------------------|
F|-------14-14-14-15-14-12-|
C|-12-12-------------------| x2
G|-------------------------|
C|-------------------------|

("don't wake us up…”)
D|-----------------------------------------------------------|
A|-----------------------------------------------------------|
F|-14-14-14-15-14----------17-14--14-14-14-15-14-------------|
C|----------------17-15-12-----------------------17-15-12-15-|
G|-----------------------------------------------------------|
C|-----------------------------------------------------------|

(“and I really wish…”)
D|----------------------------|
A|----------------------------|
F|----------------14-12-------|
C|-12-12-12-12-12-------15-15-| x2
G|----------------------------|
C|----------------------------|

(“and I’m going round…”)
D|-------------------------|
A|-------------------------|
F|-------14-14-14-15-14-12-|
C|-12-12-------------------| x2
G|-------------------------|
C|-------------------------|


[Bridge]

No rhythm 

Lead
D|---------------------------------------|
A|---------------------------------------|
F|---------------------------------------|
C|-7^-3/5/7---3/5/7-8-7/5---3/5/7-8-7/5--|
G|---------------------------------------|
C|---------------------------------------|


[Breakdown]

Rhythm
(after “pretend it’s all okay”)
D|----------------------------------------------|
A|----------------------------------------------|
F|----------------------------------------------|
C|----------------------------------------------| x4
G|----------------3-3-------3-------3-----------|
C|-0--0--0-0--0-0-----0-0-0---0-0-0---0-3-5-3-0-|

No lead


[Outro]

Rhythm
D|------------------------------------------------------------|
A|------------------------------------------------------------|
F|------------------------------------------------------------|
C|------------------------------------------------------------| x2
G|------------------------------------------------------------| 
C|-3-p0-0-0-10-12-0-0-0-3-0-0----3-p0-0-0-10-12-0-0-0-3-5-5-5-|

No lead

******
p = pull off
/ = slide
^ = bend up
˅ = bend down
******
Suggest correction
Creating personal tab
Creating personal tab
You can edit any tab online and save it as your Personal.

You can edit, replace or remove any tab part or add personal notes – all changes will be seen only by you.

Personal tabs can be accessed anytime from any device, even offline.
Learn more »
comments
print report bad tab
2 comments total.
0 reply
monkey50 76 Jan 09, 2016 02:51 PM

Wrong tuning. This is played in C Standard, Drop C. Just look at out BMTH play it and you will realise you are wrong.

guest
You may want to rate the tab now too:
select rating
Wanna post a correction for this tab? Suggest correction