Oops, an error
Loading. Please wait.

Hospital For Souls bass

version 1
version 1

Whole song

Interactive

7,091 views 24 this week
1 commentread comment
1 2 3 4 5
x 6
add to favorites
×
Save as Personal and add changes to this tab that will be seen only by you. Learn more ›
×
You can save this tab as Personal to edit and correct it or add notes. All changes will be seen only by you. Learn more »
launch autoscroll
font size
0
reset
guitar tuner
edit
Autoscroll
slow
fast
+/-
esc
set tempo
stop
Tuning: DADG
The rhythm may not be correctly tabbed out, so just listen to the song to get the rhythm.
I learnt this by ear, so it may not be 100% correct, but playing along to it, it sounds fine. 
Enjoy, and have fun!
~Clarkemenson~


Intro 1:07
G|--------------------------------------------------|
D|--------------------------------------------------|
A|--------------------------------------------------|
D|--7777777777-7777777777-5555555555-0000000000-----| x2

Verse 1:35 (There isn't really any bass in this part, but there is an electronic 
bass part, I tabbed that out)
G|-----------------------------------------------------------------------------------------------|
D|-----------------------------------------------------------------------------------------------|
A|----------------------------------------------------------------------3-3----------------------|
D|--7-7-7-7-7-7-7-7-7-10-10-3-3-3-3-3-3-3-3-3-3-3-0-0-0-0-0-0-0-0-0-0-0------3-3-3-3-3-3-3-3-3---|x3

Pre-Chorus 2:17
G|--------------------------------------------------------------------------|
D|--------------------------------------------------------------------------|
A|--------------------------------------------------------------------------|
D|---0~------------2--3~----3~---3~----2---0~-------0~-------2---3~---------|

Chorus 2:44
G|--------------------------------------------------|
D|--------------------------------------------------|
A|--------------------------------------------------|
D|--7777777777-7777777777-5555555555-0000000000-----|x2

Post-Chorus 3:12
G|--------------------------------------------------|
D|--------------------------------------------------|
A|--------------------------------------------------|
D|--3333333333-3333333333-2222222222-5555555555-----|

G|--------------------------------------------------|
D|--------------------------------------------------|
A|--------------------------------------------------|
D|--3333333333-3333333333-2222222222-55555-00000----|

Bridge 3:40
G|---------------------------------------------------------------------|
D|---------------------------------------------------------------------|
A|--0~--------------0~----------------0~-----------------0~------------|
D|---------------------------------------------------------------------|

4:09 (Hold me close..)
G|---------------------------------------------------------------------|      
D|---------------------------------------------------------------------|
A|---------------------------------------------------------------------|
D|--7~------9~-------3~-------0~---------------------------------------|x6  D|---7~-----| (Pause)

5:39 
G|-----------------------------------------------------------------|
D|-----------------------------------------------------------------|
A|-----------------------------------------------------------------|
D|--7-7-7-7-9-9-9-9-3-3-3-3-0-0-0-0--------------------------------| (Repeat till end)


G|-------------|
D|-------------|
A|----0~-------|
D|-------------|

            
            
Suggest correction
Creating personal tab
Creating personal tab
You can edit any tab online and save it as your Personal.

You can edit, replace or remove any tab part or add personal notes – all changes will be seen only by you.

Personal tabs can be accessed anytime from any device, even offline.
Learn more »
comments
print report bad tab
1 comment total.
0 reply
s.wulfeterry 10 Jul 08, 2017 11:01 PM

good so far, where you put 3 it should be 2 though :)

guest
You may want to rate the tab now too:
select rating
Wanna post a correction for this tab? Suggest correction