Oops, an error
Loading. Please wait.

I Used To Make Out With Medusa tab

version 1
version 1

Whole song

Interactive

85,624 views 15 this week
25 commentsread comments
1 2 3 4 5
x 21
add to favorites
×
Save as Personal and add changes to this tab that will be seen only by you. Learn more ›
×
You can save this tab as Personal to edit and correct it or add notes. All changes will be seen only by you. Learn more »
launch autoscroll
font size
0
reset
how to read this tab
guitar tuner
edit
Autoscroll
slow
fast
+/-
esc
set tempo
stop
Artist: Bring Me The Horizon
Song: (I Used To Make Out With) Medusa
Album: Count Your Blessings

Tabbed By: Mark Webster

Tuning: Drop B
(B F# B E G# C#)

/ - SLIDE UP TO          h - HAMMER ON
\ - SLIDE DOWN TO        p - PULL OF
~ - VIBRATO              * - PALM MUTE
" - TREMOLO PICKING     <> - ARTIFICAL HARMONIC




 GUITAR 1:

 0:00 - 0:28
--------------------------------------|
--------------------------------------|\
-----------2--------------------------| \
-------------5-3-2-------------3p1----|  \
--0-0--0-0---------0-0-3h5-0-0--------|   \
--0-0--0-0---------0-0-----0-0--------|    \
  * *  * *         * *     * *              \
                                             \
                                              \
--------------------------------------|        \
--------------------------------------|         \
-----------2--------------------------|          \ 
-------------5-3-2--------------------|           \
--0-0--0-0-------------5-7------8-10--|            \
--0-0--0-0---------5-7-----7-10-------|             \
  * *  * *                                                          
                                                    /
                                                   /
--------------------------------------|           /
--------------------------------------|          /
-----------2--------------------------|         /
-------------5-3-2-------------3p1----|        /
--0-0--0-0---------0-0-3h5-0-0--------|       /
--0-0--0-0---------0-0-----0-0--------|      /
  * *  * *         * *     * *              /
                                           /
                                          / 
--------------------------------------|  /
--------------------------------------| /          
-----------2--------------------------|/          
-------------5-3-2-------7-----7-8----|         
--0-0--0-0---------5-7-8---7-8--------|
--0-0--0-0----------------------------|
  * *  * *    

 0:28 - 0:39
------------------------------------------------------------------|
------------------------------------------------------------------|
-----------------------------------------------7-8-------10-11----|
---------------------------------------------8--------11----------|
--0-0-6-3-5----------------------6-3-5-----9-------11-------------|
--0-0-------0-0-00-0-0-00-0-0-00-------0-0------------------------|
  * *       * * ** * * ** * * **       * *

 0:39 - 0:49
------------------------------------------------------------------------------15-|
---------------------------------------------------------------------------15----|
------------------------------------------------------------------------15-------|
-----------------------------17-16--------------17-16-------------14-17----------|
--0-0--0-0-18-15-17-0-0--0-0-------18--0-0--0-0-------18-15-13-16----------------|
--0-0--0-0----------0-0--0-0-----------0-0--0-0----------------------------------|
  * *  * *          * *  * *           * *  * *

 0:49 - 0:55
------------------------------------------------------------------------|
------------------------------------------------------------------------|
-----------7/6----------------------------7/6-------<12*>-------<12*>---|
-----------x/x----------------------------x/x---------------------------|
--0-0--0-0-5/4-------5h6-----3h5-0-0--0-0-5/4-44-33-------44-22---------|
--0-0--0-0-----0-0-0-----0-0-----0-0--0-0-----44-33-------44-22---------|
  * *  * *     * * *     * *     * *  * *     ** **       ** **

 0:55 - 0:59
--------------------------------------------------|
--------------------------------------------------|
-----------7/6----------------------------7/6-----|
-----------x/x----------------------------x/x-----|
--0-0--0-0-5/4-------5h6-----3h5-0-0--0-0-5/4-----|
--0-0--0-0-----0-0-0-----0-0-----0-0--0-0---------|
  * *  * *     * * *     * *     * *  * *

 0:59 - 1:06 
---------------------------------------------------------------------------------------------------|
---------------------------------------------------------------------------------------------------|
-------<12*>-------<12*>-------<14*>-------<14*>-------<13*>-------<13*>-------<13*>-------<13*>---|
---------------------------------------------------------------------------------------------------|
-44-33-------44-22-------44-33-------44-22-------33-22-------22-11-------33-22-------22-11---------|
-44-33-------44-22-------44-33-------44-22-------33-22-------22-11-------33-22-------22-11---------|
 ** **       ** **       ** **       ** **       ** **       ** **       ** **       ** **

 1:06 - 1:08
-----------------|
-----------------|
-----------------|
-0-4-3-1-0-0-0---|
-0-4-3-1-0-0-0---|
-0-4-3-1-0-0-0---|
 * * * * * * *

 1:08 - 1:36
------------------------------------------------------------------------------------------|
------------------------------------------------------------------------------------------|
------------------------------------------------------------------------------------------|-\ 
-0-4-3-1-0-0-0--0-1-1--0-4-3-1-0-0-0--0-0-0--0-0-0--0-4-3-1-0-0-0--0-1-1--0-4-3-1-0-0-0---|  \
-0-4-3-1-0-0-0--0-1-1--0-4-3-1-0-0-0--0-0-0--0-0-0--0-4-3-1-0-0-0--0-1-1--0-4-3-1-0-0-0---|   \
-0-4-3-1-0-0-0--0-1-1--0-4-3-1-0-0-0--0-0-0--0-0-0--0-4-3-1-0-0-0--0-1-1--0-4-3-1-0-0-0---|    \
 * * * * * * *  * * *  * * * * * * *  * * *  * * *  * * * * * * *  * * *  * * * * * * *        
                                                                                               /
                                                                                              /
-----------------------|                                                                     /
-----------------------|                                                                    /
-6h9p--5h8p----|___________________________________________________________________/
-----------------------|
-----------------------|
-----------------------|


 1:36 - 1:49
------------------------|
------------------------|
------------------------|
-0-4-3-1-0-0-0--0-1-1---|
-0-4-3-1-0-0-0--0-1-1---|
-0-4-3-1-0-0-0--0-1-1---|
 * * * * * * *  * * *

 1:49 - 2:02
--------------------------------|
--------------------------------|
-6~-6-7-4~-6~-6\12-11-4~-<5*>---|
-x--x-x-x--x--x\x---x-x---------|
-4~-4-5-2~-4~-4\10--9-2~--------|
--------------------------------|


 2:02 - 2:14
------------------------------------------------------------------------------------------|
------------------------------------------------------------------------------------------|
------------------------------------------------------------------------------------------|
-0-4-3-1-0-0-0--0-1-1--0-4-3-1-0-0-0--0-0-0--0-0-0--0-4-3-1-0-0-0--0-1-1--0-4-3-1-0-0-0---|
-0-4-3-1-0-0-0--0-1-1--0-4-3-1-0-0-0--0-0-0--0-0-0--0-4-3-1-0-0-0--0-1-1--0-4-3-1-0-0-0---|
-0-4-3-1-0-0-0--0-1-1--0-4-3-1-0-0-0--0-0-0--0-0-0--0-4-3-1-0-0-0--0-1-1--0-4-3-1-0-0-0---|
 * * * * * * *  * * *  * * * * * * *  * * *  * * *  * * * * * * *  * * *  * * * * * * *

 2:14 - 2:16
----------------------|
----------------------|
-6h9p--5h8p---|
----------------------|
----------------------|
----------------------|


 2:13 - 2:20
--17-13-------17-13-------17-13-------------|
--------15----------15----------15----------|
-----------14----------14----------14-------|
--------------------------------------10~---|
--------------------------------------10~---|
--------------------------------------10~---|


 2:20 - 2:25
--------------------------------------|
--------------------------------------|
-----------2--------------------------| 
-------------5-3-2-------------3p1----|  
--0-0--0-0---------0-0-3h5-0-0--------|   
--0-0--0-0---------0-0-----0-0--------|    
  * *  * *         * *     * *              
                                             
 2:25 - 2:28                                            
--------------------------------------|        
--------------------------------------|         
-----------2--------------------------|           
-------------5-3-2--------------------|           
--0-0--0-0-------------5-7------8-10--|            
--0-0--0-0---------5-7-----7-10-------|             
  * *  * *                                          
                                                    
 2:28 - 2:31                                                 
--------------------------------------|           
--------------------------------------|          
-----------2--------------------------|         
-------------5-3-2-------------3p1----|        
--0-0--0-0---------0-0-3h5-0-0--------|       
--0-0--0-0---------0-0-----0-0--------|      
  * *  * *         * *     * *              
                                           
 2:31 - 2:33                                        
--------------------------------------|  
--------------------------------------|          
-----------2--------------------------|       
-------------5-3-2-------7-----7-8----|         
--0-0--0-0---------5-7-8---7-8--------|
--0-0--0-0----------------------------|
  * *  * *    

 2:33 - 2:42
-------------------------------------------------------------|
-------------------------------------------------------------|
-------------------------------------------------------------|
-------------------------------------------7h8p7-------------|
-------------"7-"6---------------5-----------5-7-8---|
-66-77-66-44---------------00-66-88-55-0---------0-0---------|
 ** ** ** **               ** ** ** ** *         * *

 2:42 - 2:52
-----------------------------------------|
-----------------------------------------|
-----------------------------------------|
-----------------------------------------|
-------------------------"7-"6---|
-"0-"8-"5-----------------|


 2:52 - 3:14
----------------------------------------------------------------------------------|
----------------------------------------------------------------------------------|
----------------------------------------------------------------------------------|
----------------------------------------------------------------------------------|
-----7---7-----7---7-----9---9-----9---9-----7---7-----7---7-----6---6-----6---6--|
-000---0---000---0---000---0---000---0---000---0---000---0---000---0---000---0----|
 ***   *   ***   *   ***   *   ***   *   ***   *   ***   *   ***   *   ***   *

 3:14 - 3:26
----------------------|
----------------------|
----------------------|
----------------------|
-00-00-0000000000-----|
-00-00-0000000000-----|
 ** ** **********

 3:26 - 3:29
---------------------------------------------12---|
------------------------------------------15------|
-----14-----------------------12-14----12---------|
--------15-12-----------12-15-------15------------|
-0-0----------12-0-0-12---------------------------|
-0-0-------------0-0------------------------------|
 * *             * * 

 3:29 - 3:31
---------------------17----------------------------------17---------------------|
------------------------18----------------------------18----18------------------|
-----14--------------------19----------------------19----------19---------------|
--------15-12-----------------19----------------19----------------19------------|
-0-0----------12-0-0-------------20-17----17-20----------------------20-17------|
-0-0-------------0-0-------------------19----------------------------------19---|
 * *             * *

 3:31 - 3:34
---------------------------------------------12---|
------------------------------------------15------|
-----14-----------------------12-14----12---------|
--------15-12-----------12-15-------15------------|
-0-0----------12-0-0-12---------------------------|
-0-0-------------0-0------------------------------|
 * *             * * 

 3:34 - 3:38
---------------------------------------17----------------17-19------------|
------------------------------------18----18----------18-------18---------|
-----14--------------------------19----------19----19-------------19------|
--------15-12-----------------19----------------19-------------------20---|
-0-0----------12-0-0----17-20---------------------------------------------|
-0-0-------------0-0-19---------------------------------------------------|
 * *             * * 

 3:38 - 3:42
---------------------------------------------12---|
------------------------------------------15------|
-----14-----------------------12-14----12---------|
--------15-12-----------12-15-------15------------|
-0-0----------12-0-0-12---------------------------|
-0-0-------------0-0------------------------------|
 * *             * * 

 3:42 - 3:44
---------------------------------------17----------------17-19------------|
------------------------------------18----18----------18-------18---------|
-----14--------------------------19----------19----19-------------19------|
--------15-12-----------------19----------------19-------------------20---|
-0-0----------12-0-0----17-20---------------------------------------------|
-0-0-------------0-0-19---------------------------------------------------|
 * *             * * 

 3:44 - 3:59
-----------------------------------------|
-----------------------------------------|
----------------------------------3\6~---|
-0----------------4-6-7-3-4-6-0~--x\x----|
-0--0-0--0-0--0-0-4-6-7-3-4-6-0~--1\4~---|
-0--0-0--0-0--0-0-4-6-7-3-4-6-0~---------|
 *  * *  * *  * * * * * * * * 

 3:59 - 4:24
------------------------------------------------------------------|
------------------------------------------------------------------|
------------------------------------------------------------------|
------------------------------------------------------------------|
-------4-------3-------7-------6-------6-------4-------7-------3--|
-0-0-0---0-0-0---0-0-0---0-0-0---7-7-7---7-7-7---4-4-4---4-4-4----|
 * * *   * * *   * * *   * * *   * * *   * * *   * * *   * * *

 4:24 - 4:29
-----------|
-----------|
-----------|
-----------|
-0-0-0-0---|
-0-0-0-0---|
 * * * *

 4:29 - 4:36
-----------------------------|-------------------|
-----------------------------|-------------------|
-----------------------------|-----<11*>---------|
-----------------------------|-------<12*>---|
-----------------------------|-------------------|
-"0-"1-"0-"3-|-------------------|


 4:36 - 4:42
------------------------------------------------------------------------------------------------------|
------------------------------------------------------------------------------------------------------|
-------------------------------------------------------------------------------------------<10*>------|
------------------------------------------------------------------------------------------------<11*>-|
------------------------------------------------------------------------------------------------------|
-"0-"1-"0-"3-"0-"1-"4-"3-"0-"1-"3-"2-"0-----------|


 4:42 - 4:48
-----------------------------------------------------------------|
-----------------------------------------------------------------|
-----------------------------------------------------<11*>-------|
-------<12*>----------------------------------------------<12*>--|
-----------------------------------------------------------------|
-0-1-0-------0-1-4-3-"0-"1-"3-"2-0---------------|
 * * *       * * * *                             *

 4:48 - 4:52
-----------------------------------------------------------------------|
-----------------------------------------------------------------------|
-----------------------------------------------------------------------|
-------<12*>-----------------------------------------------------------|
-----------------------------------------------------------------------|
-0-1-0-------0-1-4-3-"0-"1-"3-"2-"0-"3-"2--|
 * * *       * * * * 

 4:52 - 5:06
---------------------------------------------------------------------------|
---------------------------------------------------------------------------|
-----------------------------------------------------<11*>-----<11*>-------|
-------<12*>----------------------------------------------<12*>-----<12*>~-|
---------------------------------------------------------------------------|
-0-1-0-------0-1-4-3-"0-"1-"3-"2-0-------------------------|
 * * *       * * * *                             *

 5:06 - 5:35
--------------------------------------------------------------------------------|
---------------------------------------<12*>------------------------------------|
------------------------------------------------------------6h9p-5h8p---|
--------------------------------------------------------------------------------|
-----------------"0---------------------------------------------------------|
-000-111-444-333--------"10-"13-----000-111-444-333---------------------|
 *** *** *** ***                            *** *** *** ***

 5:35 - 5:41
------------------------------------|
------------------------------------|
------------------------------------|
----------7-------------------------|
-0-0--0-0---10-8-7-0-0-0-0-0-0--0---|
-0-0--0-0----------0-0-0-0-0-0--0---|
 * *  * *          * * * * * *  *








 Guitar 2
 0:00 - 0:19
-----------------------------------|
-----------------------------------|\
----------5------------------------| \
------------8-7-5-------------7p5--|  \
-0-0--0-0---------0-0-7h8-0-0------|   \
-0-0--0-0---------0-0-----0-0------|    \
 * *  * *         * *     * *            \
                                          \
                                           \
-------------------------------------|      \ 
-------------------------------------|       \ 
----------5--------------------------|        \
------------8-7-5--------------------|         \
-0-0--0-0-------------5-7------8-10--|          \
-0-0--0-0---------5-7-----7-10-------|           \
 * *  * *                                         \
                                                  
                                                  /
-----------------------------------|             / 
-----------------------------------|            /
----------5------------------------|           /
------------8-7-5-------------7p5--|          /
-0-0--0-0---------0-0-7h8-0-0------|         /
-0-0--0-0---------0-0-----0-0------|        /
 * *  * *         * *     * *              /
                                          /
                                         /
-----------------------------------|    /
-----------------------------------|   /
----------5------------------------|  /
------------8-7-5-------7-----7-8--| /
-0-0--0-0---------5-7-8---7-8------|/
-0-0--0-0--------------------------|
 * *  * *         * * *   * *

 0:19 - 0:22
-------------------------------------------|
-------------------------------------------|
----------14-------------------------------|
-------------17-15-14---------------15p13--|
-0-0--0-0-------------0-0-16h17-0-0--------|
-0-0--0-0-------------0-0-------0-0--------|
 * *  * *             * *       * *

 0:22 - 0:24
-----------------------------------------|
-----------------------------------------|
----------14-----------------------------|
-------------17-15-14--------------------|
-0-0--0-0-----------------5-7------8-10--|
-0-0--0-0-------------5-7-----7-10-------|
 * *  * * 

 0:24 - 0:26
-------------------------------------------|
-------------------------------------------|
----------14-------------------------------|
-------------17-15-14---------------15p13--|
-0-0--0-0-------------0-0-16h17-0-0--------|
-0-0--0-0-------------0-0-------0-0--------|
 * *  * *             * *       * *

 0:26 - 0:28
---------------------------------------|
---------------------------------------|
----------14---------------------------|
-------------17-15-14-------7-----7-8--|
-0-0--0-0-------------5-7-8---7-8------|
-0-0--0-0------------------------------|
 * *  * *             * * *   * *

 0:28 - 0:39
------------------------------------------------------------------|
------------------------------------------------------------------|
-----------------------------------------------7-8-------10-11----|
---------------------------------------------8--------11----------|
--0-0-6-3-5----------------------6-3-5-----9-------11-------------|
--0-0-------0-0-00-0-0-00-0-0-00-------0-0------------------------|
  * *       * * ** * * ** * * **       * *

 0:39 - 0:49
------------------------------------------------------------------------------15-|
---------------------------------------------------------------------------15----|
------------------------------------------------------------------------15-------|
-----------------------------17-16--------------17-16-------------14-17----------|
--0-0--0-0-18-15-17-0-0--0-0-------18--0-0--0-0-------18-15-13-16----------------|
--0-0--0-0----------0-0--0-0-----------0-0--0-0----------------------------------|
  * *  * *          * *  * *           * *  * *

 0:49 - 0:55
------------------------------------------------------------------------|
------------------------------------------------------------------------|
-----------7/6----------------------------7/6-------<12*>-------<12*>---|
-----------x/x----------------------------x/x---------------------------|
--0-0--0-0-5/4-------5h6-----3h5-0-0--0-0-5/4-44-33-------44-22---------|
--0-0--0-0-----0-0-0-----0-0-----0-0--0-0-----44-33-------44-22---------|
  * *  * *     * * *     * *     * *  * *     ** **       ** **

 0:55 - 0:59
----------------------------------------------|
--------------------6h8-----5h6---------------|
----------7/6----------------------------7/6--|
----------x/x----------------------------x/x--|
-0-0--0-0-5/4-------------------0-0--0-0-5/4--|
-0-0--0-0-----0-0-0-----0-0-----0-0--0-0------|
 * *  * *     * * *     * *     * *  * *

 0:59 - 1:06 
---------------------------------------------------------------------------------------------------|
---------------------------------------------------------------------------------------------------|
-------<12*>-------<12*>-------<14*>-------<14*>-------<13*>-------<13*>-------<13*>-------<13*>---|
---------------------------------------------------------------------------------------------------|
-44-33-------44-22-------44-33-------44-22-------33-22-------22-11-------33-22-------22-11---------|
-44-33-------44-22-------44-33-------44-22-------33-22-------22-11-------33-22-------22-11---------|
 ** **       ** **       ** **       ** **       ** **       ** **       ** **       ** **

 1:06 - 1:08
----------------|
----------------|
----------------|
-0-4-3-1-0-0-0--|
-0-4-3-1-0-0-0--|
-0-4-3-1-0-0-0--|
 * * * * * * *

 1:08 - 1:36
--------------------------------------------------------------------------------------------|
--------------------------------------------------------------------------------------------|
--------------<12*>-----------------------------------------------<12*>---------------------|-\ 
-0-4-3-1-0-0-0-----1-1--0-4-3-1-0-0-0--0-0-0--0-0-0--0-4-3-1-0-0-0-----1-1--0-4-3-1-0-0-0---|  \
-0-4-3-1-0-0-0-----1-1--0-4-3-1-0-0-0--0-0-0--0-0-0--0-4-3-1-0-0-0-----1-1--0-4-3-1-0-0-0---|   \
-0-4-3-1-0-0-0-----1-1--0-4-3-1-0-0-0--0-0-0--0-0-0--0-4-3-1-0-0-0-----1-1--0-4-3-1-0-0-0---|    \
 * * * * * * *     * *  * * * * * * *  * * *  * * *  * * * * * * *     * *  * * * * * * *        
                                                                                                 /
                                                                                                /
-----------------------|                                                                       /
-----------------------|                                                                      /
-6h9p--5h8p----|_____________________________________________________________________/
-----------------------|
-----------------------|
-----------------------|


 1:36 - 1:46
----------------------------------|
----------------------------------|
-------------------------3---2-2--|
-0-4-3-1-0-1-3-0-1-4-3-1-x---x-x--|
-0-4-3-1-0-1-3-0-1-4-3-1-1---0-0--|
-0-4-3-1-0-1-3-0-1-4-3-1---0------|
 * * * * * * * * * * * *   *

 1:46 - 1:49
---------------------------|
---------------------------|
---------------------------|
-0-4-3-1-0-1-3-0-1-4-3-4\--|
-0-4-3-1-0-1-3-0-1-4-3-4\--|
-0-4-3-1-0-1-3-0-1-4-3-4\--|
 * * * * * * * * * * *

 1:49 - 1:58
-------------------------------------------------------------------------------|
-------------------------------------------------------------------------------|
----------------------------------------------------------------"3-"2--|
-------------------------------------------------------------------------------|
-------------------------------------------------------------------------------|
-"1-"4-"3-"0-"1-"3-"1-"4-"3----------------|


 1:58 - 2:01
---------------------------------------------------------------------|
---------------------------------------------------------------------|
---------------------------------------------------------------<12*>-|
---------------------------------------------------------------------|
---------------------------------------------------------------------|
-"1-"4-"3-"0-"1-"3-"1-"4-"3------|


 2:01 - 2:14
--------------------------------------------------------------------------------------------|
--------------------------------------------------------------------------------------------|
--------------<12*>-----------------------------------------------<12*>---------------------| 
-0-4-3-1-0-0-0-----1-1--0-4-3-1-0-0-0--0-0-0--0-0-0--0-4-3-1-0-0-0-----1-1--0-4-3-1-0-0-0---|  
-0-4-3-1-0-0-0-----1-1--0-4-3-1-0-0-0--0-0-0--0-0-0--0-4-3-1-0-0-0-----1-1--0-4-3-1-0-0-0---|   
-0-4-3-1-0-0-0-----1-1--0-4-3-1-0-0-0--0-0-0--0-0-0--0-4-3-1-0-0-0-----1-1--0-4-3-1-0-0-0---|    
 * * * * * * *     * *  * * * * * * *  * * *  * * *  * * * * * * *     * *  * * * * * * *       
                                                                                                 
 2:14 - 2:16
----------------------|
----------------------|
-6h9p--5h8p---|
----------------------|
----------------------|
----------------------|


 2:16 - 2:20
-----17-13-------17-13-------17-13--------|
-----------15----------15----------15-----|
--------------14----------14----------14--|
-0~---------------------------------------|
-0~---------------------------------------|
-0~---------------------------------------|


 2:20 - 2:24
-----------------------------------|
-----------------------------------|
----------5------------------------|
------------8-7-5-------------7p5--|
-0-0--0-0---------0-0-7h8-0-0------|
-0-0--0-0---------0-0-----0-0------|
 * *  * *         * *     * *

 2:24 - 2:28
-------------------------------------|
-------------------------------------|
----------5--------------------------|
------------8-7-5--------------------|
-0-0--0-0-------------5-7------8-10--|
-0-0--0-0---------5-7-----7-10-------|
 * *  * * 

 2:28 - 2:31
-----------------------------------|
-----------------------------------|
----------5------------------------|
------------8-7-5-------------7p5--|
-0-0--0-0---------0-0-7h8-0-0------|
-0-0--0-0---------0-0-----0-0------|
 * *  * *         * *     * *

 2:31 - 2:33
-----------------------------------|
-----------------------------------|
----------5------------------------|
------------8-7-5-------7-----7-8--|
-0-0--0-0---------5-7-8---7-8------|
-0-0--0-0--------------------------|
 * *  * *         * * *   * *

 2:33 - 2:44
-------------------------------------------------------------|
-------------"10-"8----------------------------------|
-------------------------------------------------------------|
--------------------------------------------7h8p7------------|
------------------------------------------5-----------5-7-8--|
-00-66-77-55----------------00-66-77-55-0---------0-0--------|
 ** ** ** **                ** ** ** ** *         * *

 Solo:
 2:44 - 3:14
-------------------------------------------------|
-----15-17-16b-17-15----------17-------20--------|
---------------------17-17-19----19-17----17-----|
---------------------------------------------17--|
-------------------------------------------------|
-\12---------------------------------------------|



-----------------------------------------------------------------------------|
-18-16-15-16-15----15--------------------------------------------------------|
----------------17----17-15-17-15-14h15p14-17-15-14-15-14----14--------------|
----------------------------------------------------------17----17-15-17-15--|
-----------------------------------------------------------------------------|
-----------------------------------------------------------------------------|



---------------------------------------------------------------------------------------------------|
---------------------------------------------------------------------------------------------------|
---------------------------------------------------------------------------------------------------|
-14h15p14-17-15-14-15-14----14---------------------------------------------------------------------|
-------------------------17----17-15-17-15-14h15p14-15-14-12-14-12----12---------------------------|
-------------------------------------------------------------------17----17-15-17-15-14h15p14-12~--|



-17p13p10-18p13p10-17p13p10-17p12p9-18p12p9-17p12p9--|
-----------------------------------------------------------------------------|
-----------------------------------------------------------------------------|
-----------------------------------------------------------------------------|
-----------------------------------------------------------------------------|
-----------------------------------------------------------------------------|



-------------------------------17-15----15---------|
-15-15-17-18-20-18h20p18-17----------18----18-17\--|
----------------------------18---------------------|
---------------------------------------------------|
---------------------------------------------------|
---------------------------------------------------|



----------17----------------18----------------20-18-17-18-17----17-----------------|
-15-17-18----18-17-15-17-18----18-17-15-17-18----------------20----20-18-17-18-15--|
-----------------------------------------------------------------------------------|
-----------------------------------------------------------------------------------|
-----------------------------------------------------------------------------------|


 3:14 - 3:32
----------------------|
----------------------|
----------------------|
----------------------|
-00-00-0000000000-----|
-00-00-0000000000-----|
 ** ** **********

 3:32 - 3:43
-----17-13--------------------------------------12-|
-----------15--------------------------------15----|
--------------14--------------12-14----12-14-------|
------------------------12-15-------15-------------|________
-0-0-------------0-0-12----------------------------|        \
-0-0-------------0-0-------------------------------|         \
 * *             * *                                          \
                                                               \
-----17-13-----------------------------------------17-------|   \
-----------15-----------------------18----------18----18----|   
--------------14-----------------19----19----19----------19-|   /
------------------------------19----------19----------------|  /
-0-0-------------0-0----17-20-------------------------------|_/
-0-0-------------0-0-19-------------------------------------|
 * *             * *

 3:43 - 3:59
----------------------------------|
----------------------------------|
----------------------------7\10~-|
-0~----------1-3-4-0-1-3-0~-x\x---|
-0~-00-00-00-1-3-4-0-1-3-0~-5\8~--|
-0~-00-00-00-1-3-4-0-1-3-0~-------|
    ** ** ** * * * * * *

 3:59 - 4:12
--------------------------------------------------|
--------------------------------------------------|
--------------------------------------------------|
--------------------------------------------------|
-----5-----7-----8-----7-----7-----5-----8-----4--|
-000---000---000---000---777---777---444---444----|
 ***   ***   ***   ***   ***   ***   ***   ***

 4:12 - 4:23
----------------------------------------------------|
----------------------------------------------------|
----------------------------------------------------|
----------------------------------------------------|
-----8-----7-----12-----10-----7-----5-----8-----4--|
-000---000---000----000----777---777---444---444----|
 ***   ***   ***    ***    ***   ***   ***   ***

 4:23 - 4:36
----------------|
----------------|
----------------|
-0-0-0-0--------|
-0-0-0-0---|
-0-0-0-0--------|


 4:36 - 4:42
------------------------------------------------------------------------------------------------------|
------------------------------------------------------------------------------------------------------|
-------------------------------------------------------------------------------------------<10*>------|
------------------------------------------------------------------------------------------------<11*>-|
------------------------------------------------------------------------------------------------------|
-"0-"1-"0-"3-"0-"1-"4-"3-"0-"1-"3-"2-"0-----------|


 4:42 - 4:48
-----------------------------------------------------------------|
-----------------------------------------------------------------|
-----------------------------------------------------<11*>-------|
-------<12*>----------------------------------------------<12*>--|
-----------------------------------------------------------------|
-0-1-0-------0-1-4-3-"0-"1-"3-"2-0---------------|
 * * *       * * * *                             *

 4:48 - 4:52
-----------------------------------------------------------------------|
-----------------------------------------------------------------------|
-----------------------------------------------------------------------|
-------<12*>-----------------------------------------------------------|
-----------------------------------------------------------------------|
-0-1-0-------0-1-4-3-"0-"1-"3-"2-"0-"3-"2--|
 * * *       * * * * 

 4:52 - 5:06
---------------------------------------------------------------------------|
---------------------------------------------------------------------------|
-----------------------------------------------------<11*>-----<11*>-------|
-------<12*>----------------------------------------------<12*>-----<12*>~-|
---------------------------------------------------------------------------|
-0-1-0-------0-1-4-3-"0-"1-"3-"2-0-------------------------|
 * * *       * * * *                             *

 5:06 - 5:35
--------------------------------------------------------------------------------|
---------------------------------------<12*>------------------------------------|
------------------------------------------------------------6h9p-5h8p---|
--------------------------------------------------------------------------------|
-----------------"0---------------------------------------------------------|
-000-111-444-333--------"10-"13-----000-111-444-333---------------------|
 *** *** *** ***                            *** *** *** ***

 5:35 - 5:41
------------------------------------|
------------------------------------|
------------------------------------|
----------7-------------------------|
-0-0--0-0---10-8-7-0-0-0-0-0-0--0---|
-0-0--0-0----------0-0-0-0-0-0--0---|
 * *  * *          * * * * * *  *
Suggest correction
Creating personal tab
Creating personal tab
You can edit any tab online and save it as your Personal.

You can edit, replace or remove any tab part or add personal notes – all changes will be seen only by you.

Personal tabs can be accessed anytime from any device, even offline.
Learn more »
comments
print report bad tab
25 comments total. Showing first comments.
+1 reply
confinedforever 977 Nov 21, 2006 10:15 AM

mark i love u!!! =] great tab!!!!

+1 reply
choii 37 Nov 24, 2006 06:23 PM

nice shit dude

+1 reply
if.i.could.fly 41 Jan 14, 2007 06:10 AM

This is fecking hard!! but great tab dude!!

Any chance of doing Fifteen Fathoms, Counting? That would rock, cheers

guest
You may want to rate the tab now too:
select rating
Wanna post a correction for this tab? Suggest correction