Oops, an error
Loading. Please wait.

I Used To Make Out With Medusa tab

version 2
version 2

Whole song

Interactive

10,604 views 3 this week
3 commentsread comments
1 2 3 4 5
x 5
add to favorites
×
Save as Personal and add changes to this tab that will be seen only by you. Learn more ›
×
You can save this tab as Personal to edit and correct it or add notes. All changes will be seen only by you. Learn more »
launch autoscroll
font size
0
reset
how to read this tab
guitar tuner
edit
Autoscroll
slow
fast
+/-
esc
set tempo
stop
(I Used To Make Out With) Medusa
Bring Me The Horizon

This band sucks. Have a Nice Day.

Transcribed by Seth Sanders {F.u.c.kallyourfalsebeauty@hotmail.com}

Gtr I (B F# B E G# C#) - 'Rhythm Guitar I'
Gtr II (B F# B E G# C#) - 'Rhythm Guitar II'
Gtr III (B F# B E G# C#) - 'Lead Guitar I'
Gtr IV (B F# B E G# C#) - 'Lead Guitar II'


   Intro
    Q=194
   4/4
    Gtr I
    PM--------|           PM--|     PM--|         PM--------|
    S S e S S e E E E E   S S e E E S S e  E  E   S S e S S e E E E E
||----------------------|-----------------------|----------------------|
||o---------------------|-----------------------|----------------------|
||--------------2p0-----|-----------------------|-------------2p0------|
||------------------3p2-|------------------3p=2-|-----------------3p2--|
||o---------------------|-------4h5-------------|----------------------|
||--0-0-0-0-0-0---------|-0-0-0-----0-0-0-------|-0-0-0-0-0-0----------|
|
|   Gtr II
|   PM--------|           PM--|     PM--|         PM--------|
|   S S e S S e E E E E   S S e E E S S e  E  E   S S e S S e E E E E
||----------------------|-----------------------|----------------------|
||o---------------------|-----------------------|----------------------|
||--------------5-------|-----------------------|-------------5--------|
||----------------8p7p5-|-----------------10----|---------------8p7p5--|
||o---------------------|-------7h8----------10-|----------------------|
||--0-0-0-0-0-0---------|-0-0-0-----0-0-0-------|-0-0-0-0-0-0----------|


  PM|               PM--------|           PM--|     PM--|
  E E E E E E E E   S S e S S e E E E E   S S e E E S S e  E  E
|-----------------|---------------------|-----------------------|
|-----------------|---------------------|-----------------------|
|-----------------|-------------2p0-----|-----------------------|
|-----0h3-----2s5-|-----------------3p2-|------------------3p=2-|
|---0-----0h1-----|---------------------|-------4h5-------------|
|-0---------------|-0-0-0-0-0-0---------|-0-0-0-----0-0-0-------|
|
| PM|               PM--------|           PM--|     PM--|
| E E E E E E E E   S S e S S e E E E E   S S e E E S S e  E  E
|-----------------|---------------------|-----------------------|
|-----------------|---------------------|-----------------------|
|-----------------|-------------5-------|-----------------------|
|-----0h3-----2---|---------------8p7p5-|-----------------10----|
|---0-----0h1---3-|---------------------|-------7h8----------10-|
|-0---------------|-0-0-0-0-0-0---------|-0-0-0-----0-0-0-------|


  PM--------|           PM
  S S e S S e E E E E   E E E E E E E E
|---------------------|------------------||
|---------------------|-----------------o||
|-------------2p0-----|------------------||
|-----------------3p2-|-------7-----7s5--||
|---------------------|-5-7h8---7h8-----o||
|-0-0-0-0-0-0---------|------------------||
|
| PM--------|           PM
| S S e S S e E E E E   E E E E E E E E
|---------------------|------------------||
|---------------------|-----------------o||
|-------------5-------|------------------||
|---------------8p7p5-|-------7-----7s8--||
|---------------------|---7h8---7h8-----o||
|-0-0-0-0-0-0---------|-8----------------||


 Pre-Verse
  PM--------|                PM--|       PM--|         PM--------|
  S S e S S e   E  E  E  E   S S e  E  E S S e  E  E   S S e S S e  E  E  E  E
|--------------------------|-------------------------|-------------------------|
|--------------------------|-------------------------|-------------------------|
|---------------2p=0-------|-------------------------|--------------2p=0-------|
|---------------------3p=2-|--------------------3p=2-|--------------------3p=2-|
|--------------------------|--------4h=5-------------|-------------------------|
|-0-0-0-0-0-0--------------|-0-0-0-------0-0-0-------|-0-0-0-0-0-0-------------|
|
| PM--------|                PM--|       PM--|         PM--------|
| S S e S S e   E  E  E  E   S S e  E  E S S e  E  E   S S e S S e  E  E  E  E
|--------------------------|-------------------------|-------------------------|
|-------------/13----------|-------------------------|-------------13----------|
|-----------------15p14p12-|-------------------17----|----------------15p14p12-|
|--------------------------|-------15h17----------17-|-------------------------|
|--------------------------|-------------------------|-------------------------|
|-0-0-0-0-0-0--------------|-0-0-0-------0-0-0-------|-0-0-0-0-0-0-------------|


  PM|               PM--------|                PM--|       PM--|
  E E E E E E E E   S S e S S e   E  E  E  E   S S e  E  E S S e  E  E
|-----------------|--------------------------|-------------------------|
|-----------------|--------------------------|-------------------------|
|-----------------|---------------2p=0-------|-------------------------|
|-----0h3-----2s5-|---------------------3p=2-|--------------------3p=2-|
|---0-----0h1-----|--------------------------|--------4h=5-------------|
|-0---------------|-0-0-0-0-0-0--------------|-0-0-0-------0-0-0-------|
|
| PM|               PM--------|                PM--|       PM--|
| E E E E E E E E   S S e S S e   E  E  E  E   S S e  E  E S S e  E  E
|-----------------|--------------------------|-------------------------|
|-----------------|-------------/13----------|-------------------------|
|-----------------|-----------------15p14p12-|-------------------17----|
|-----0h3-----2---|--------------------------|-------15h17----------17-|
|---0-----0h1---3-|--------------------------|-------------------------|
|-0---------------|-0-0-0-0-0-0--------------|-0-0-0-------0-0-0-------|


  PM--------|               PM
  S S e S S e  E  E  E  E   E E E E E E E E
|-------------------------|-----------------||
|-------------------------|-----------------||
|--------------2p=0-------|-----------------||
|--------------------3p=2-|-------7-----7s5-||
|-------------------------|-5-7h8---7h8-----||
|-0-0-0-0-0-0-------------|-----------------||
|
| PM--------|               PM
| S S e S S e  E  E  E  E   E E E E E E E E
|-------------------------|-----------------||
|-------------13----------|-----------------||
|----------------15p14p12-|-----------------||
|-------------------------|-------7-----7s8-||
|-------------------------|---7h8---7h8-----||
|-0-0-0-0-0-0-------------|-8---------------||


   Verse
    Gtr I
    PM--|        PM------------------------|
    S S E E E q  E E   S S E E S S E E S S E
||-------------------|-----------------------|
||o------------------|-----------------------|
||-------------------|-----------------------|
||-------------------|-----------------------|
||o-------6p3-5------|-----------------------|
||--0-0-0--------0-0-|-0-0-0-0-0-0-0-0-0-0-0-|
|
|   PM--|        PM------------------------|
|   S S E E E q  E E   S S E E S S E E S S E
||-------------------|-----------------------|
||o------------------|-----------------------|
||-------------------|-----------------------|
||-------------------|-----------------------|
||o-------6p3-5------|-----------------------|
||--0-0-0--------0-0-|-0-0-0-0-0-0-0-0-0-0-0-|


  PM--|        PM--|
  S S E E E q  S E S    E  E  E  E  E  E  E  E
|--------------------|--------------------------||
|--------------------|-------------------------o||
|--------------------|-------------------12h14--||
|--------------------|----------13p12-13--------||
|-------6p3-5--------|----12h15----------------o||
|-0-0-0--------0-0-0-|-13-----------------------||
|
| PM--|        PM--|
| S S E E E q  S E S    E  E  E  E  E  E  E  E
|--------------------|--------------------------||
|--------------------|-------------------------o||
|--------------------|--------------------------||
|--------------------|----------13----------17--||
|-------6p3-5--------|----12h15-------15h18----o||
|-0-0-0--------0-0-0-|-13----------17-----------||


    Gtrs I, II
    PM--------|            PM--------|
    S S E S S E  E E  q    S S E S S E  E  E  q
||-----------------------|-----------------------|
||o----------------------|-----------------------|
||-----------------------|-----------------------|
||-----------------------|-------------13p11-----|
||o-------------12p9-11--|-------------------12--|
||--0-0-0-0-0-0----------|-0-0-0-0-0-0-----------|


  PM--------|                                  ~~
  S S E S S E  E  E  E  E    E  E  E  E  E  E  Q
|-------------------------|-------------------13-----||
|-------------------------|----------------15-------o||
|-------------------------|----------12h14-----------||
|-------------12p11-------|----12h14-----------------||
|-------------------11h12h|=13----------------------o||
|-0-0-0-0-0-0-------------|--------------------------||


   Prelude
    PM--------|      PM------|     PM|       PM--------|      PM|
    S S E S S E E q  S S   e E E E E E E E   S S E S S E E q  S S
||-----------------------|-----------------|----------------------|
||o----------------------|-----------------|----------------------|
||--------------8S7------|-----------------|-------------8S7------|
||--------------x-x------|-----------------|-------------x-x------|
||o-------------6S5------|-----6p5-----3h5-|-------------6S5------|
||--0-0-0-0-0-0------0-0-|-x-0-----0-x-----|-0-0-0-0-0-0------0-0-|


 3/4
  PM------------|          PM------------|
  |-3-|   |-3-|            |-3-|   |-3-|
  S S S E S S S E  Q       S S S E S S S E  Q
|------------------------|-------------------------||
|------------------------|------------------------o||
|-----------------[5]b7--|-----------------[5]b7---||
|------------------------|-------------------------||
|------------------------|------------------------o||
|-6-6-6-6-5-5-5-5--------|-6-6-6-6-5-5-5-5---------||


  PM------------|          PM------------|          PM------------|
  |-3-|   |-3-|            |-3-|   |-3-|            |-3-|   |-3-|
  S S S E S S S E  Q       S S S E S S S E  Q       S S S E S S S E  Q
|------------------------|------------------------|------------------------|
|------------------------|------------------------|------------------------|
|-----------------[5]b7--|-----------------[3]b4--|-----------------[2]b4--|
|------------------------|------------------------|------------------------|
|------------------------|------------------------|------------------------|
|-6-6-6-6-5-5-5-5--------|-5-5-5-5-3-3-3-3--------|-3-3-3-3-2-2-2-2--------|


  PM------------|          PM------------|
  |-3-|   |-3-|            |-3-|   |-3-|
  S S S E S S S E  Q       S S S E S S S E  Q
|------------------------|------------------------||
|------------------------|------------------------||
|-----------------[2]b4--|-----------------[1]b3--||
|------------------------|------------------------||
|------------------------|------------------------||
|-2-2-2-2-0-0-0-0--------|-2-2-2-2-0-0-0-0--------||


 Breakdown
  Q=144
  B5EbD5C5    B5B5                         B5EbD5C5    B5B5
 4/4
  Gtrs I, II
  E E E E +S  S q.     S S E Q  S S E Q    E E E E +S  S q.
|--------------------|-------------------|---------------------|
|--------------------|-------------------|---------------------|
|--------------------|-------------------|---------------------|
|-0-4-3-1-(1)p0-0----|-------------------|-0-4-3-1-(1)p0-0-----|
|-0-4-3-1-(1)-0-0----|-x-x-x----x-x-x----|-0-4-3-1-(1)-0-0-----|
|-0-4-3-1-(1)p0-0----|-x-x-x----x-x-x----|-0-4-3-1-(1)p0-0-----|


                             B5EbD5C5    B5B5              B5
        PM--|       PM--|                                  PM------|
  E. E. T T S  E    S S q    E E E E +S  S q.     S S E Q  S S E E E
|--------------------------|--------------------|---------------------|
|--------------------------|--------------------|---------------------|
|-------------[5]b7--------|--------------------|---------------------|
|--------------------------|-0-4-3-1-(1)p0-0----|---------------------|
|-x--x---------------------|-0-4-3-1-(1)-0-0----|-x-x-x----0-0-0-0-0--|
|-x--x--0-0-0-------0-0-0--|-0-4-3-1-(1)p0-0----|-x-x-x----0-0-0-0-0--|


  B5EbD5C5    B5B5                                B5EbD5C5    B5B5
                             PM--|       PM--|
  E E E E +S  S q.     E. E. T T S  E    S S q    E E E E +S  S q.
|--------------------|--------------------------|--------------------|
|--------------------|--------------------------|--------------------|
|--------------------|-------------[5]b7--------|--------------------|
|-0-4-3-1-(1)p0-0----|--------------------------|-0-4-3-1-(1)p0-0----|
|-0-4-3-1-(1)-0-0----|-x--x---------------------|-0-4-3-1-(1)-0-0----|
|-0-4-3-1-(1)p0-0----|-x--x--0-0-0-------0-0-0--|-0-4-3-1-(1)p0-0----|


                                               1.
                                               B5EbD5C5    B5B5
    Gtr I
    S  S S  S S  S S  S   S S  S S  S S  S S   E E E E +S  S q.
||-------------------------------------------|--------------------|
||o------------------------------------------|--------------------|
||--6h10-6h10-6h10-6h10-----9----9----9----9-|--------------------|
||-----------------------10---10---10---10---|-0-4-3-1-(1)p0-0----|
||o------------------------------------------|-0-4-3-1-(1)-0-0----|
||-------------------------------------------|-0-4-3-1-(1)p0-0----|
|
|   Gtr II
|   S  S S  S S  S S  S   S S  S S  S S  S S   E E E E +S  S q.
||-------------------------------------------|--------------------|
||o------------------------------------------|--------------------|
||--3h=6-3h=6-3h=6-3h=6\--2h5--2h5--2h5--2h5-|--------------------|
||-------------------------------------------|-0-4-3-1-(1)p0-0----|
||o------------------------------------------|-0-4-3-1-(1)-0-0----|
||-------------------------------------------|-0-4-3-1-(1)p0-0----|


                             B5EbD5C5    B5B5              B5
        PM--|       PM--|                                  PM------|
  E. E. T T S  E    S S q    E E E E +S  S q.     S S E Q  S S E E E
|--------------------------|--------------------|---------------------|
|--------------------------|--------------------|---------------------|
|-------------[5]b7--------|--------------------|---------------------|
|--------------------------|-0-4-3-1-(1)p0-0----|---------------------|
|-x--x---------------------|-0-4-3-1-(1)-0-0----|-x-x-x----0-0-0-0-0--|
|-x--x--0-0-0-------0-0-0--|-0-4-3-1-(1)p0-0----|-x-x-x----0-0-0-0-0--|
|
|       PM--|       PM--|                                  PM------|
| E. E. S   S  E    S S q    E E E E +S  S q.     S S E Q  S S E E E
|--------------------------|--------------------|---------------------|
|--------------------------|--------------------|---------------------|
|-------------[3]b5--------|--------------------|---------------------|
|--------------------------|-0-4-3-1-(1)p0-0----|---------------------|
|-x--x---------------------|-0-4-3-1-(1)-0-0----|-x-x-x----0-0-0-0-0--|
|-x--x--0---0-------0-0-0--|-0-4-3-1-(1)p0-0----|-x-x-x----0-0-0-0-0--|


  B5EbD5C5    B5B5                                B5EbD5C5    B5B5
                             PM--|       PM--|
  E E E E +S  S q.     E. E. T T S  E    S S q    E E E E +S  S q.
|--------------------|--------------------------|---------------------||
|--------------------|--------------------------|--------------------o||
|--------------------|-------------[5]b7--------|---------------------||
|-0-4-3-1-(1)p0-0----|--------------------------|-0-4-3-1-(1)p0-0-----||
|-0-4-3-1-(1)-0-0----|-x--x---------------------|-0-4-3-1-(1)-0-0----o||
|-0-4-3-1-(1)p0-0----|-x--x--0-0-0-------0-0-0--|-0-4-3-1-(1)p0-0-----||
|
|                            PM--|       PM--|
| E E E E +S  S q.     E. E. T T S  E    S S q    E E E E +S  S q.
|--------------------|--------------------------|---------------------||
|--------------------|--------------------------|--------------------o||
|--------------------|-------------[3]b5--------|---------------------||
|-0-4-3-1-(1)p0-0----|--------------------------|-0-4-3-1-(1)p0-0-----||
|-0-4-3-1-(1)-0-0----|-x--x---------------------|-0-4-3-1-(1)-0-0----o||
|-0-4-3-1-(1)p0-0----|-x--x--0-0-0-------0-0-0--|-0-4-3-1-(1)p0-0-----||


  2.
                         B5EbD5C5    B5B5              B5
                PM--|                                  PM------|
  E. E. E  E    S S q    E E E E +S  S q.     S S E Q  S S E E E
|----------------------|--------------------|--------------------|
|----------------------|--------------------|--------------------|
|---------[5]b7--------|--------------------|--------------------|
|----------------------|-0-4-3-1-(1)p0-0----|--------------------|
|-x--x--x--------------|-0-4-3-1-(1)-0-0----|-x-x-x----0-0-0-0-0-|
|-x--x--x-------0-0-0--|-0-4-3-1-(1)p0-0----|-x-x-x----0-0-0-0-0-|
|
|               PM--|                                  PM------|
| E. E. E  E    S S q    E E E E +S  S q.     S S E Q  S S E E E
|----------------------|--------------------|--------------------|
|----------------------|--------------------|--------------------|
|---------[3]b5--------|--------------------|--------------------|
|----------------------|-0-4-3-1-(1)p0-0----|--------------------|
|-x--x--x--------------|-0-4-3-1-(1)-0-0----|-x-x-x----0-0-0-0-0-|
|-x--x--x-------0-0-0--|-0-4-3-1-(1)p0-0----|-x-x-x----0-0-0-0-0-|


           B5                                 B5EbD5C5    B5B5
           PM------|                 PM--|
  S S E Q  S S E E E   E. E. E  E    S S q    E E E E +S  S q.
|--------------------|----------------------|--------------------|
|--------------------|----------------------|--------------------|
|--------------------|---------[5]b7--------|--------------------|
|--------------------|----------------------|-0-4-3-1-(1)p0-0----|
|-x-x-x----0-0-0-0-0-|-x--x--x--------------|-0-4-3-1-(1)-0-0----|
|-x-x-x----0-0-0-0-0-|-x--x--x-------0-0-0--|-0-4-3-1-(1)p0-0----|
|
|          PM------|                 PM--|
| S S E Q  S S E E E   E. E. E  E    S S q    E E E E +S  S q.
|--------------------|----------------------|--------------------|
|--------------------|----------------------|--------------------|
|--------------------|---------[3]b5--------|--------------------|
|--------------------|----------------------|-0-4-3-1-(1)p0-0----|
|-x-x-x----0-0-0-0-0-|-x--x--x--------------|-0-4-3-1-(1)-0-0----|
|-x-x-x----0-0-0-0-0-|-x--x--x-------0-0-0--|-0-4-3-1-(1)p0-0----|


  S  S S  S S  S S  S   S S  S S  S S  S S
|------------------------------------------|
|------------------------------------------|
|-6h10-6h10-6h10-6h10-----9----9----9----9-|
|----------------------10---10---10---10---|
|------------------------------------------|
|------------------------------------------|
|
| S  S S  S S  S S  S   S S  S S  S S  S S
|------------------------------------------|
|------------------------------------------|
|-3h=6-3h=6-3h=6-3h=6\--2h5--2h5--2h5--2h5-|
|------------------------------------------|
|------------------------------------------|
|------------------------------------------|


                      1.,2.,3.
    B5EbD5C5G5B5EbD5  B5 Eb5  D5C5    B5    G5  B5F#5
    E E E E E E E E   E  E    E E      E    E   E E  4x
||------------------|--------------------------------||
||o-----------------|-------------------------------o||
||----------3-------|-----------------------3-----2--||
||--0-4-3-1-3-0-4-3-|-0--4----3-1------0----3-----2--||
||o-0-4-3-1-1-0-4-3-|-0--4----3-1------0----1---0-0-o||
||--0-4-3-1---0-4-3-|-0--4----3-1------0--------0----||
|
|                               PM--|       PM--|
|   E E E E q   Q     E.   E.   T T S  E    S S q    4x
||------------------|--------------------------------||
||o-----------------|-------------------------------o||
||------------------|-----------------[5]b7----------||
||------------------|--------------------------------||
||o-0-4-3-1-0---x---|-x----x------------------------o||
||--0-4-3-1-0---x---|-x----x----0-0-0-------0-0-0----||


  4.
  B5EbD5C5G5      C5  B
  E E E E Q   +E  E   S S S S S S S S S S S S S S S S
|-------------------|---------------------------------|
|-------------------|---------------------------------|
|---------3---(3)s8-|---------------------------------|
|-0-4-3-1-3---(3)s8-|---------------------------------|
|-0-4-3-1-1---(1)s6-|-----------------1-1-------------|
|-0-4-3-1-----------|-0-0-4-4-3-3-1-1-----0-0-4-4-3-3-|
|
| H       E E  q      W
|-------------------|---------------------------------|
|-------------------|---------------------------------|
|-------------------|-7-------------------------------|
|-x-----------------|-x-------------------------------|
|-x-------0-0--0----|-5-------------------------------|
|-x-------0-0--0----|---------------------------------|


                    B       C
   S  S S S S S S S S S S S S S S S
|-------------------------------------|
|-------------------------------------|
|-------------------------------------|
|-------------------------------------|
|-------------------1-1-1-1-0-0-0-0---|
|--0--0-4-4-3-3-1-1-------------------|
|
| +H                Q       Q
|-------------------------------------|
|-------------------------------------|
|-(7)---------------7-------8---------|
|-------------------x-------x---------|
|-(5)---------------5-------6---------|
|-------------------------------------|


  A
  S S S S S S S S S S S S S S S S    S  S S S S S S S S S S S S S S S
|---------------------------------|-----------------------------------|
|---------------------------------|-----------------------------------|
|---------------------------------|-----------------------------------|
|---------------------------------|-----------------------------------|
|-----------------1-1-------------|-------------------1-1-1-1-0-0-0-0-|
|-0-0-4-4-3-3-1-1-----0-0-4-4-3-3-|--0--0-4-4-3-3-1-1-----------------|
|
| W                                 +W
|---------------------------------|-----------------------------------|
|---------------------------------|-----------------------------------|
|-5-------------------------------|-(5)-------------------------------|
|-x-------------------------------|-----------------------------------|
|-3-------------------------------|-(3)-------------------------------|
|---------------------------------|-----------------------------------|


  B                                                   E        Eb
  S S S S S S S S S S S S S S S S    S  S S S S S S S  S S S S  S S S S
|---------------------------------|-------------------------------------|
|---------------------------------|-------------------------------------|
|---------------------------------|-------------------------------------|
|---------------------------------|-------------------------------------|
|-----------------1-1-------------|--------------------1-1-1-1--0-0-0-0-|
|-0-0-4-4-3-3-1-1-----0-0-4-4-3-3-|--0--0-4-4-3-3-1-1-------------------|
|
| W                                 +H                 Q        Q
|---------------------------------|-------------------------------------|
|---------------------------------|-------------------------------------|
|-7-------------------------------|-(7)---------------12-------11-------|
|-x-------------------------------|--------------------x--------x-------|
|-5-------------------------------|-(5)---------------10--------9-------|
|---------------------------------|-------------------------------------|


  A
  S S S S S S S S S S S S S S S S    S  S S S S S S S S S S S S S S S
|---------------------------------|-----------------------------------|
|---------------------------------|-----------------------------------|
|---------------------------------|-----------------------------------|
|---------------------------------|-----------------------------------|
|-----------------1-1-------------|-------------------1-1-1-1-0-0-0-0-|
|-0-0-4-4-3-3-1-1-----0-0-4-4-3-3-|--0--0-4-4-3-3-1-1-----------------|
|
|                                    ~~~
| W                                  W
|---------------------------------|-----------------------------------|
|---------------------------------|-----------------------------------|
|-5-------------------------------|-[5]-------------------------------|
|-x-------------------------------|-----------------------------------|
|-3-------------------------------|-----------------------------------|
|---------------------------------|-----------------------------------|


  B5EbD5C5    B5B5                                B5EbD5C5    B5B5
                             PM--|       PM--|
  E E E E +S  S q.     E. E. T T S  E    S S q    E E E E +S  S q.
|--------------------|--------------------------|--------------------|
|--------------------|--------------------------|--------------------|
|--------------------|-------------[5]b7--------|--------------------|
|-0-4-3-1-(1)p0-0----|--------------------------|-0-4-3-1-(1)p0-0----|
|-0-4-3-1-(1)-0-0----|-x--x---------------------|-0-4-3-1-(1)-0-0----|
|-0-4-3-1-(1)p0-0----|-x--x--0-0-0-------0-0-0--|-0-4-3-1-(1)p0-0----|
|
|                            PM--|       PM--|
| E E E E +S  S q.     E. E. T T S  E    S S q    E E E E +S  S q.
|--------------------|--------------------------|--------------------|
|--------------------|--------------------------|--------------------|
|--------------------|-------------[3]b5--------|--------------------|
|-0-4-3-1-(1)p0-0----|--------------------------|-0-4-3-1-(1)p0-0----|
|-0-4-3-1-(1)-0-0----|-x--x---------------------|-0-4-3-1-(1)-0-0----|
|-0-4-3-1-(1)p0-0----|-x--x--0-0-0-------0-0-0--|-0-4-3-1-(1)p0-0----|


           B5          B5EbD5C5    B5B5
           PM------|                              PM--|       PM--|
  S S E Q  S S E E E   E E E E +S  S q.     E. E. T T S  E    S S q
|--------------------|--------------------|---------------------------|
|--------------------|--------------------|---------------------------|
|--------------------|--------------------|-------------[5]b7---------|
|--------------------|-0-4-3-1-(1)p0-0----|---------------------------|
|-x-x-x----0-0-0-0-0-|-0-4-3-1-(1)-0-0----|-x--x----------------------|
|-x-x-x----0-0-0-0-0-|-0-4-3-1-(1)p0-0----|-x--x--0-0-0-------0-0-0---|
|
|          PM------|                              PM--|       PM--|
| S S E Q  S S E E E   E E E E +S  S q.     E. E. T T S  E    S S q
|--------------------|--------------------|---------------------------|
|--------------------|--------------------|---------------------------|
|--------------------|--------------------|-------------[3]b5---------|
|--------------------|-0-4-3-1-(1)p0-0----|---------------------------|
|-x-x-x----0-0-0-0-0-|-0-4-3-1-(1)-0-0----|-x--x----------------------|
|-x-x-x----0-0-0-0-0-|-0-4-3-1-(1)p0-0----|-x--x--0-0-0-------0-0-0---|


  B5EbD5C5    B5B5
  E E E E +S  S q.     S  S S  S S  S S  S   S S  S S  S S  S S
|--------------------|------------------------------------------||
|--------------------|------------------------------------------||
|--------------------|-6h10-6h10-6h10-6h10-----9----9----9----9-||
|-0-4-3-1-(1)p0-0----|----------------------10---10---10---10---||
|-0-4-3-1-(1)-0-0----|------------------------------------------||
|-0-4-3-1-(1)p0-0----|------------------------------------------||
|
| E E E E +S  S q.     S  S S  S S  S S  S   S S  S S  S S  S S
|--------------------|------------------------------------------||
|--------------------|------------------------------------------||
|--------------------|-3h=6-3h=6-3h=6-3h=6\--2h5--2h5--2h5--2h5-||
|-0-4-3-1-(1)p0-0----|------------------------------------------||
|-0-4-3-1-(1)-0-0----|------------------------------------------||
|-0-4-3-1-(1)p0-0----|------------------------------------------||


 Pre-Chorus
  G5
  Gtr III
             ~~~               ~~~
   E   E  E  Q.    E  E    E   Q.    E  E  E  E
|-17--------------17----|-----------17----------|
|-----18-------------18-|--------------18-------|
|--------19-------------|-19--------------19----|
|-----------19----------|-----19-------------19-|
|-----------------------|-----------------------|
|-----------------------|-----------------------|
|
| Gtrs I, II
|  H.              Q      +W
|-----------------------|-----------------------|
|-----------------------|-----------------------|
|--3---------------3----|-(3)-------------------|
|--3---------------3----|-(3)-------------------|
|--1---------------1----|-(1)-------------------|
|-----------------------|-----------------------|


  A5                     A5
            ~~~              ~~~
   E  E  E  Q.    E  E    E  Q.    E  E  E  E
|-17-------------17----|----------17----------||
|----18-------------18-|-------------18-------||
|-------19-------------|-19-------------19----||
|----------19----------|----19-------------19-||
|----------------------|----------------------||
|----------------------|----------------------||
|
|  W                      W
|----------------------|----------------------||
|----------------------|----------------------||
|--5-------------------|--5-------------------||
|--5-------------------|--5-------------------||
|--3-------------------|--3-------------------||
|----------------------|----------------------||


 Chorus
  Q=194
  Gtr I
  PM--------|           PM--|     PM--|         PM--------|
  S S e S S e E E E E   S S e E E S S e  E  E   S S e S S e E E E E
|---------------------|-----------------------|---------------------|
|---------------------|-----------------------|---------------------|
|-------------2p0-----|-----------------------|-------------2p0-----|
|-----------------3p2-|------------------3p=2-|-----------------3p2-|
|---------------------|-------4h5-------------|---------------------|
|-0-0-0-0-0-0---------|-0-0-0-----0-0-0-------|-0-0-0-0-0-0---------|
|
| Gtr II
| PM--------|           PM--|     PM--|         PM--------|
| S S e S S e E E E E   S S e E E S S e  E  E   S S e S S e E E E E
|---------------------|-----------------------|---------------------|
|---------------------|-----------------------|---------------------|
|-------------5-------|-----------------------|-------------5-------|
|---------------8p7p5-|-----------------10----|---------------8p7p5-|
|---------------------|-------7h8----------10-|---------------------|
|-0-0-0-0-0-0---------|-0-0-0-----0-0-0-------|-0-0-0-0-0-0---------|


  PM|               PM--------|           PM--|     PM--|
  E E E E E E E E   S S e S S e E E E E   S S e E E S S e  E  E
|-----------------|---------------------|-----------------------|
|-----------------|---------------------|-----------------------|
|-----------------|-------------2p0-----|-----------------------|
|-----0h3-----2s5-|-----------------3p2-|------------------3p=2-|
|---0-----0h1-----|---------------------|-------4h5-------------|
|-0---------------|-0-0-0-0-0-0---------|-0-0-0-----0-0-0-------|
|
| PM|               PM--------|           PM--|     PM--|
| E E E E E E E E   S S e S S e E E E E   S S e E E S S e  E  E
|-----------------|---------------------|-----------------------|
|-----------------|---------------------|-----------------------|
|-----------------|-------------5-------|-----------------------|
|-----0h3-----2---|---------------8p7p5-|-----------------10----|
|---0-----0h1---3-|---------------------|-------7h8----------10-|
|-0---------------|-0-0-0-0-0-0---------|-0-0-0-----0-0-0-------|


  PM--------|           PM
  S S e S S e E E E E   E E E E E E E E
|---------------------|-----------------||
|---------------------|-----------------||
|-------------2p0-----|-----------------||
|-----------------3p2-|-------7-----7s5-||
|---------------------|-5-7h8---7h8-----||
|-0-0-0-0-0-0---------|-----------------||
|
| PM--------|           PM
| S S e S S e E E E E   E E E E E E E E
|---------------------|-----------------||
|---------------------|-----------------||
|-------------5-------|-----------------||
|---------------8p7p5-|-------7-----7s8-||
|---------------------|---7h8---7h8-----||
|-0-0-0-0-0-0---------|-8---------------||


   Pre-Solo
    S S S S S S S S S S S S S S S S   S S S S S S S S  S  S  S  S  S  S  S  S
||----------------------------------|------------------------------------------|
||o---------------------------------|------------------------------------------|
||----------------------------------|------------------------------------------|
||----------------------------------|-7-7-7-7-7-7-7-7--------------------------|
||o---------------------------------|-----------------10-10-10-10-10-10-10-10--|
||--0-0-0-0-7-7-7-7-8-8-8-8-5-5-5-5-|------------------------------------------|
|
|   S S S S S S S S S S S S S S S S   S S S S S S S S  S  S  S  S  S  S  S  S
||----------------------------------|------------------------------------------|
||o---------------------------------|------------------------------------------|
||----------------------------------|------------------------------------------|
||----------------------------------|------------------------------------------|
||o---------------------------------|-8-8-8-8-8-8-8-8--7--7--7--7--7--7--7--7--|
||--0-0-0-0-7-7-7-7-8-8-8-8-5-5-5-5-|------------------------------------------|


                                       |-3--|    |-3-|
  S S S S S S S S S S S S S S S S   q  E  E E q  E E E
|---------------------------------|----------------------||
|---------------------------------|---------------------o||
|---------------------------------|----------------------||
|---------------------------------|----7h=8p7------------||
|---------------------------------|-5------------5h7h8--o||
|-0-0-0-0-7-7-7-7-8-8-8-8-5-5-5-5-|-----------5----------||
|
|                                      |-3--|    |-3-|
| S S S S S S S S S S S S S S S S   q  E  E E q  E E E
|---------------------------------|----------------------||
|---------------------------------|---------------------o||
|---------------------------------|----------------------||
|---------------------------------|----------------------||
|---------------------------------|----8h10p8----5h7h8--o||
|-0-0-0-0-7-7-7-7-8-8-8-8-5-5-5-5-|-8---------5----------||


 Guitar Solo I
  Gtr III
    ~~~~
                                  |---3---|
    H.                     a a  a E  E    E
|---------------------------------------------|
|-----------------------------------15h==17---|
|---------------------------------x-----------|
|-------------------------------x-------------|
|----------------------------x----------------|
|-/12----------------------x------------------|
|
| Gtr IV
|                               |----3----|
|   H.                          E    E    E
|---------------------------------------------|
|-----------------------------------12h==13---|
|------------------------------13-------------|
|---------------------------------------------|
|---------------------------------------------|
|---------------------------------------------|
|
| Gtrs I, II
|   PM-----------------------------------------
|   S  S S S S S S S S S S S    S S    S    S
|---------------------------------------------|
|---------------------------------------------|
|---------------------------------------------|
|---------------------------------------------|
|---------------------------------------------|
|---0--0-0-0-0-0-0-0-0-0-0-0----0-0----0----0-|


   W
|--------------------------------------|
|-17b18--------------------------------|
|--------------------------------------|
|--------------------------------------|
|--------------------------------------|
|--------------------------------------|
|
|  W
|--------------------------------------|
|-13b15--------------------------------|
|--------------------------------------|
|--------------------------------------|
|--------------------------------------|
|--------------------------------------|
|
|-----------------------------------|
|  S    S S S S S S S S S S S S S S S
|--------------------------------------|
|--------------------------------------|
|--------------------------------------|
|--------------------------------------|
|--------------------------------------|
|-/8----8-8-8-8-8-8-8-8-8-8-8-8-8-8-8--|


         ~~~
   S  S  H.                        S  S
|---------------------------------------|
|-17p15---------------------------15h17-|
|-------17------------------------------|
|---------------------------------------|
|---------------------------------------|
|---------------------------------------|
|
|        ~~~
|  S  S  H.                        S  S
|---------------------------------------|
|-13p12---------------------------12h13-|
|-------14------------------------------|
|---------------------------------------|
|---------------------------------------|
|---------------------------------------|
|
|  PM------------------------------------
|  S  S  S  S S S S S S S S S S S  S  S
|---------------------------------------|
|---------------------------------------|
|---------------------------------------|
|---------------------------------------|
|---------------------------------------|
|--5--5--5--5-5-5-5-5-5-5-5-5-5-5--5--5-|


   |-------3-------|      |-------3-------|
   Q      Q        Q      Q      Q        Q
|-----------------------------------------------|
|-18-----17--------------20-----17--------------|
|-----------------17---------------------17-----|
|-----------------------------------------------|
|-----------------------------------------------|
|-----------------------------------------------|
|
|  |-------3-------|      |-------3-------|
|  Q      Q        Q      Q      Q        Q
|------------------------12---------------------|
|-15-----13---------------------13--------------|
|-----------------14---------------------14-----|
|-----------------------------------------------|
|-----------------------------------------------|
|-----------------------------------------------|
|
|---------------------------------------------|
|  S S S    S S S    S S  S S S    S S S    S S
|-----------------------------------------------|
|-----------------------------------------------|
|-----------------------------------------------|
|-----------------------------------------------|
|--8-8-8----8-8-8----8-8--7-7-7----7-7-7----7-7-|
|-----------------------------------------------|


  Gtr III
   |----3----|    |----3----|    |----3----|    |----3-----|
   E    E    E    E    E    E    E    E    E    E    S  S  E
|--------------------------------------------------------------|
|-18p==17p==15---17p==15--------15-----------------------------|
|--------------------------18--------18p==15---18p==15---------|
|------------------------------------------------------15h19---|
|--------------------------------------------------------------|
|--------------------------------------------------------------|
|
| Gtrs I, II
|  PM-----------------------------------------------------------
|  S S    S    S  S S    S    S  S S    S    S  S S     S    S
|--------------------------------------------------------------|
|--------------------------------------------------------------|
|--------------------------------------------------------------|
|--------------------------------------------------------------|
|--------------------------------------------------------------|
|--0-0----0----0--0-0----0----0--0-0----0----0--0-0-----0----0-|


   |----3----|    |----3----|    |----3----|    |----3----|
   E    E    E    E    E    E    E    E    E    E    E    E
|--------------------------------------------------------------|
|--------------------------------------------------------------|
|-15-----------------------------------------------------------|
|------19p==17---19p==17---15h==17p==15--------15--------------|
|-----------------------------------------19--------19p==17----|
|--------------------------------------------------------------|
|
|-----------------------------------------------------------|
|  S S    S    S  S S    S    S  S S    S    S  S S    S    S
|--------------------------------------------------------------|
|--------------------------------------------------------------|
|--------------------------------------------------------------|
|--------------------------------------------------------------|
|--------------------------------------------------------------|
|-/8-8----8----8--8-8----8----8--8-8----8----8--8-8----8----8--|


   |----3----|    |----3----|    |----3----|    |----3----|
   E    E    E    E    E    E    E    E    E    E    E    E
|-------------------------------------------------------------|
|-------------------------------------------------------------|
|-------------------------------------------------------------|
|-------------------------------------------------------------|
|-19p==17---16h==17p==16---13h==16---13p==12---13p==12p==10---|
|-------------------------------------------------------------|
|
|  PM----------------------------------------------------------
|  S S    S    S  S S    S    S  S S    S    S  S S    S    S
|-------------------------------------------------------------|
|-------------------------------------------------------------|
|-------------------------------------------------------------|
|-------------------------------------------------------------|
|-------------------------------------------------------------|
|--5-5----5----5--5-5----5----5--5-5----5----5--5-5----5----5-|


                                ~~
   |---3----|    |---3---|
   E    E   E    E   E   E   a  H
|------------------------------------------------||
|------------------------------------------------||
|------------------------------------------------||
|------------------------------------------------||
|-12p==10---8h==10---8p==7-----------------------||
|----------------------------8s12----------------||
|
|---------------------------------------------|
|  S S    S   S  S S   S   S    S S S S S S S S
|------------------------------------------------||
|------------------------------------------------||
|------------------------------------------------||
|------------------------------------------------||
|--8-8----8---8--8-8---8---8----7-7-7-7-7-7-7-7--||
|------------------------------------------------||


 Arpeggios
  Q=134
  C#7sus4/B                                        Dsus4add6/B
     S   S   S   S   S   S   S   S   S   S   S   S   S   S   S   S
|-!/17---------!17---------!17---------!17---------!18---------!18-|
|------!17---------!17---------!17---------!17---------!18---------|
|----------!19---------!19---------!19---------!19---------!19-----|
|------------------------------------------------------------------|
|------------------------------------------------------------------|
|------------------------------------------------------------------|
|
|    PM----|                 PM----|                 PM----|
|    S   S   S   e       S   S   S   S   e       S   S   S   S   S
|------------------------------------------------------------------|
|------------------------------------------------------------------|
|------------------------------------------------------------------|
|----------------------------------------------------------------5-|
|----------------8-------8---------------8-------8-----------------|
|----0---0---0---------------0---0---0---------------5---5---5-----|


          F#+sus4/B               C#sus4add6/Bb
    S   S   S   S   S   S   S   S   S   S   S   S   S   S   S   S
|---------!17---------!17---------!17---------!17---------!17-----|
|-!18---------!18---------!18---------!17---------!17---------!17-|
|-----!19---------!19---------!19---------!18---------!18---------|
|-----------------------------------------------------------------|
|-----------------------------------------------------------------|
|-----------------------------------------------------------------|
|
|           PM----|                 PM----|                 PM|
|   S   S   S   S   S   e       S   S   S   S   e       S   S   S
|-----------------------------------------------------------------|
|-----------------------------------------------------------------|
|-----------------------------------------------------------------|
|---x---5---------------5-------5---------------------------------|
|-----------------------------------------------8-------8---------|
|-----------5---5---5---------------7---7---7---------------7---7-|


                  Bbmadd6                 C#sus4add6/Bb
    S   S   S   S   S   S   S   S   S   S   S   S   S   S   S   S
|-----!17---------!18---------!18---------!17---------!17---------|
|---------!17---------!17---------!17---------!17---------!17-----|
|-!18---------!18---------!18---------!18---------!18---------!18-|
|-----------------------------------------------------------------|
|-----------------------------------------------------------------|
|-----------------------------------------------------------------|
|
|                   PM----|                 PM----|
|   S   e       S   S   S   S   e       S   S   S   S   e       S
|-----------------------------------------------------------------|
|-----------------------------------------------------------------|
|-----------------------------------------------------------------|
|-------------------------------2-------2---------------2-------2-|
|-------8-------8-------------------------------------------------|
|---7---------------3---3---3---------------3---3---3-------------|


  C#7sus4/B                                       Dsus4add6/B
    S   S   S   S   S   S   S   S   S   S   S   S   S   S   S   S
|-!17---------!17---------!17---------!17---------!18---------!18-|
|-----!17---------!17---------!17---------!17---------!18---------|
|---------!19---------!19---------!19---------!19---------!19-----|
|-----------------------------------------------------------------|
|-----------------------------------------------------------------|
|-----------------------------------------------------------------|
|
|   PM----|                 PM----|                 PM----|
|   S   S   S   e       S   S   S   S   e       S   S   S   S   S
|-----------------------------------------------------------------|
|-----------------------------------------------------------------|
|-----------------------------------------------------------------|
|---------------------------------------------------------------5-|
|---------------8-------8---------------8-------8-----------------|
|---0---0---0---------------0---0---0---------------5---5---5-----|


          F#+sus4/B               C#sus4add6/Bb
    S   S   S   S   S   S   S   S   S   S   S   S   S   S   S   S
|---------!17---------!17---------!17---------!17---------!17-----|
|-!18---------!18---------!18---------!17---------!17---------!17-|
|-----!19---------!19---------!19---------!18---------!18---------|
|-----------------------------------------------------------------|
|-----------------------------------------------------------------|
|-----------------------------------------------------------------|
|
|           PM----|                 PM----|                 PM|
|   S   S   S   S   S   e       S   S   S   S   e       S   S   S
|-----------------------------------------------------------------|
|-----------------------------------------------------------------|
|-----------------------------------------------------------------|
|---x---5---------------5-------5---------------------------------|
|-----------------------------------------------8-------8---------|
|-----------5---5---5---------------7---7---7---------------7---7-|


                  Bbmadd6                 C#sus4add6/Bb
    S   S   S   S   S   S   S   S   S   S   S   S   S   S   S   S
|-----!17---------!18---------!18---------!17---------!17----------||
|---------!17---------!17---------!17---------!17---------!17------||
|-!18---------!18---------!18---------!18---------!18---------!18S=||
|------------------------------------------------------------------||
|------------------------------------------------------------------||
|------------------------------------------------------------------||
|
|                   PM----|                 PM----|
|   S   e       S   S   S   S   e       S   S   S   S   e       S
|------------------------------------------------------------------||
|------------------------------------------------------------------||
|------------------------------------------------------------------||
|-------------------------------2-------2---------------2-------2--||
|-------8-------8--------------------------------------------------||
|---7---------------3---3---3---------------3---3---3--------------||


 Guitar Solo II
  Gtr III
    ~~~~
    Q        H.                                    W
|-----------------------------------------------|---------------------------------------|
|-----------------------------------------------|---------------------------------------|
|--19-------------------------------------------|---------------------------------------|
|-----------------------------------------------|---------------------------------------|
|-----------------------------------------------|---------------------------------------|
|-----------------------------------------------|---------------------------------------|
|
| Gtr IV
|   ~~~~                                                                  ~~~~~~~~~~~~~~~
|   Q.             +E.        S  S  S  E    E      E    E    E    E       H
|-------------------------------------12---13---|-15---13---12---13b15r===x-------------|
|-/15-------------(15)\-----/15-15-15-----------|------------------------14-------------|
|-----------------------------------------------|---------------------------------------|
|-----------------------------------------------|---------------------------------------|
|-----------------------------------------------|---------------------------------------|
|-----------------------------------------------|---------------------------------------|
|
| Gtrs I, II
|   PM---|          PM----|            PM--|            PM--|             PM--|     PM|
|   S  S S e    S   S   S S   e     S  S S  S S    S S  S S  S e       S  S S S e S S S
|-----------------------------------------------|---------------------------------------|
|-----------------------------------------------|---------------------------------------|
|-----------------------------------------------|---------------------------------------|
|---------------------------------------------5-|--x-5---------5-------5----------------|
|----------8----8-------------8-----8-----------|-------------------------------8-8-----|
|---0--0-0----------0---0-0------------5-5--5---|-------5-5--5------------7-7-7-----7-7-|


    W
|------------------------------------------------|
|------------------------------------------------|
|------------------------------------------------|
|------------------------------------------------|
|------------------------------------------------|
|------------------------------------------------|
|
|~~~~~~
|  +E     +E       E    E    E    E    E    E
|----------------/17p==15--------15--------------|
|-(14)---(14)\--------------18--------18p==17----|
|------------------------------------------------|
|------------------------------------------------|
|------------------------------------------------|
|------------------------------------------------|
|
|                  PM--|          PM--|
|   S  e       S   S S  S e    S  S S  S e    S
|------------------------------------------------|
|------------------------------------------------|
|------------------------------------------------|
|-------------------------2----2---------2----2--|
|------8-------8---------------------------------|
|---7--------------3-3--3---------3-3--3---------|


  F#sus4+5          Dadd6add11/F#       Asus2add6add11/F#
 3/4
  Gtr IV
   S  S  S  S  S  S  S  S  S  S  S  S    S  S  S  S  S  S  S  S  S  S  S  S
|----------17----------------18-------|----------20p18p17-18p17----17-------|
|-------18----18----------18----18----|-------18----------------20----20p18-|
|----19----------19----19----------19-|----19-------------------------------|
|-19----------------19----------------|-19----------------------------------|
|-------------------------------------|-------------------------------------|
|-------------------------------------|-------------------------------------|
|
| Gtrs I, II
|  PM---|            PM---|              PM---|            PM---|
|  S  S  S  e     S  S  S  S  e     S    S  S  S  S  S  S  S  S  S  e     S
|-------------------------------------|-------------------------------------|
|-------------------------------------|-------------------------------------|
|-------------------------------------|-------------------------------------|
|-------------------------------------|-----------5--x--5-----------5-----5-|
|-----------8-----8-----------8-----8-|-------------------------------------|
|--0--0--0-----------0--0--0----------|--5--5--5-----------5--5--5----------|


  F#sus4+5          Dadd6add11/F#
 3/4
  Gtr IV
   S  S  S  S  S  S  S  S  S  S  S  S
|----------17----------------18-------|
|-------18----18----------18----18----|
|----19----------19----19----------19-|
|-19----------------19----------------|
|-------------------------------------|
|-------------------------------------|
|
| Gtrs I, II
|  PM---|            PM|
|  S  S  S  e     S  S  S  S  e     S
|-------------------------------------|
|-------------------------------------|
|-------------------------------------|
|-------------------------------------|
|-----------8-----8-----------8-----8-|
|--7--7--7-----------7--7--7----------|


  Asus2add6add11/F#
   S  S  S  S  S  S  S  S  S  S  S     S
|----------20p18p17-18p17----17h18-------||
|-------18----------------20----------18-||
|----19----------------------------------||
|-19-------------------------------------||
|----------------------------------------||
|----------------------------------------||
|
|  PM---|            PM---|
|  S  S  S  e     S  S  S  S  S.   S.
|----------------------------------------||
|----------------------------------------||
|----------------------------------------||
|-----------2-----2-----------2----0-----||
|----------------------------------------||
|--3--3--3-----------3--3--3-------------||


 Bridge
  Q=184
 4/4
  Gtr IV
                    ~~~~
   H               +H                W
|----------------------------------|----------|
|----------------------------------|----------|
|-17b19-----------(17)-------------|----------|
|----------------------------------|----------|
|----------------------------------|----------|
|----------------------------------|----------|
|
| Gtrs I, II
|  PM--------------------------------|
|  S    S E S S E   S  E S S S S S   q  H.
|----------------------------------|----------|
|----------------------------------|----------|
|----------------------------------|----------|
|----------------------------------|----------|
|----------------------------------|----------|
|--0----0-0-0-0-0---0--0-0-0-0-0-0-|-0--------|


    Gtrs I, II
    PM--------------------------------------------------|
    S S E S S E S E S S S S S   S S E S S E S E S S S S S
||----------------------------|----------------------------||
||o---------------------------|---------------------------o||
||----------------------------|----------------------------||
||----------------------------|----------------------------||
||o---------------------------|---------------------------o||
||--0-0-0-0-0-0-0-0-0-0-0-0-0-|-0-0-0-0-0-0-0-0-0-0-0-0-0--||


 Harmony
          F#sus4+5
  Gtrs I, II
  PM-----------------------------------
  S S E    S S    E     S E S S S S S
|-------------------------------------|
|-------------------------------------|
|-------------------------------------|
|-------------------------------------|
|-------------------------------------|
|-0-0-0----0-0----0-----0-0-0-0-0-0-0-|
|
| Gtr III
|                       ~~
|          |----3----|
| S S S S  E    E    E  Q     E   E
|-------------------------------------|
|-----x---10--------------------------|
|---x---x-----------10----------------|
|-x------------12-------------x---x---|
|----------------------12-----x---x---|
|-------------------------------------|


 -------------------------------------------|
  S S    E    S S    E    S E      S  S S S S
|----------------------------------------------|
|----------------------------------------------|
|----------------------------------------------|
|----------------------------------------------|
|----------------------------------------------|
|-0-0----0----0-0----0----0-0------0--0-0-0-0--|
|
|                                     ~~
| |---3----|  |---3----|  |--3---|
| E    E   E  E    E   E  E    E E    Q
|--------------------------------9h==12--------|
|-----------------11----------11---------------|
|----------9h12--------9h12--------------------|
|-8h==12---------------------------------------|
|----------------------------------------------|
|----------------------------------------------|


          F#sus4+5
  PM-----------------------------------
  S S E    S S    E     S E S S S S S
|-------------------------------------|
|-------------------------------------|
|-------------------------------------|
|-------------------------------------|
|-------------------------------------|
|-0-0-0----0-0----0-----0-0-0-0-0-0-0-|
|
|                       ~~
|          |----3----|
| S S S S  E    E    E  Q     E   E
|-------------------------------------|
|-----x---10--------------------------|
|---x---x-----------10----------------|
|-x------------12-------------x---x---|
|----------------------12-----x---x---|
|-------------------------------------|


  F#sus4+5/D
 ------------------------------------------------|
    S S    E     S  S  E     S  E       S  S S S S
|--------------------------------------------------|
|--------------------------------------------------|
|--------------------------------------------------|
|--------------------------------------------------|
|--------------------------------------------------|
|---0-0----0-----0--0--0-----0--0-------0--0-0-0-0-|
|
|                                          ~~
|   |----3----|                 |--3--|
|   E    E    E  S  S  S  S  a  E  E  E    Q
|-/17--------------------------17------------------|
|-------18------------------18----18---------------|
|------------19----------19----------19------------|
|---------------19----19------------------19-------|
|------------------20------------------------------|
|--------------------------------------------------|


    Gtrs I, II
    PM-----------------------------------
    S S E    S S    E     S E S S S S S
||--------------------------------------|
||o-------------------------------------|
||--------------------------------------|
||--------------------------------------|
||o-------------------------------------|
||--0-0-0----0-0----0-----0-0-0-0-0-0-0-|
|
|   Gtr III
|                         ~~
|            |----3----|
|   S S S S  E    E    E  Q     E   E
||--------------------------------------|
||o-----x---10--------------------------|
||----x---x-----------10----------------|
||--x------------12-------------x---x---|
||o----------------------12-----x---x---|
||--------------------------------------|
|
|   Gtr IV
|                         ~~
|            |----3----|
|   S S S S  E    E    E  Q     E   E
||----------17--------------------------|
||o-----x--------18---------------------|
||----x---x-----------19----------------|
||--x--------------------19-----x---x---|
||o-----------------------------x---x---|
||--------------------------------------|


 -------------------------------------------|
  S S    E    S S    E    S E      S  S S S S
|---------------------------------------------|
|---------------------------------------------|
|---------------------------------------------|
|---------------------------------------------|
|---------------------------------------------|
|-0-0----0----0-0----0----0-0------0--0-0-0-0-|
|
|                                     ~~
| |---3----|  |---3----|  |--3---|
| E    E   E  E    E   E  E    E E    Q
|--------------------------------9h==12-------|
|-----------------11----------11--------------|
|----------9h12--------9h12-------------------|
|-8h==12--------------------------------------|
|---------------------------------------------|
|---------------------------------------------|
|
|                                     ~~
| |---3----|  |---3----|  |--3---|
| E    E   E  E    E   E  E    E E    Q
|--------------------------------9h==12-------|
|-----------------11----------11--------------|
|----------9h12--------9h12-------------------|
|-8h==12--------------------------------------|
|---------------------------------------------|
|---------------------------------------------|


  PM-----------------------------------
  S S E    S S    E     S E S S S S S
|-------------------------------------|
|-------------------------------------|
|-------------------------------------|
|-------------------------------------|
|-------------------------------------|
|-0-0-0----0-0----0-----0-0-0-0-0-0-0-|
|
|                       ~~
|          |----3----|
| S S S S  E    E    E  Q     E   E
|-------------------------------------|
|-----x---10--------------------------|
|---x---x-----------10----------------|
|-x------------12-------------x---x---|
|----------------------12-----x---x---|
|-------------------------------------|
|
|                       ~~
|          |----3----|
| S S S S  E    E    E  Q     E   E
|---------17--------------------------|
|-----x--------18---------------------|
|---x---x-----------19----------------|
|-x--------------------19-----x---x---|
|-----------------------------x---x---|
|-------------------------------------|


 ---------------------------------------------------------|
   S    S     E        S S    E        S E       S  S S S S
|------------------------------------------------------------||
|-----------------------------------------------------------o||
|------------------------------------------------------------||
|------------------------------------------------------------||
|-----------------------------------------------------------o||
|--0----0-----0--------0-0----0--------0-0-------0--0-0-0-0--||
|
|                                                   ~~
|  |---3---|  |--3--|  |----3----|     |---3---|
|  S  S    S  S  S  S  E    E    E     E    E  E    Q
|------------------17p13--------------15---------------------||
|---------------15---------15--------------15---------------o||
|------------14-----------------16------------16-------------||
|---------15---------------------------------------17--------||
|-12-15-----------------------------------------------------o||
|------------------------------------------------------------||
|
|                                                   ~~
|  |---3---|  |--3--|  |----3----|     |---3---|
|  S  S    S  S  S  S  E    E    E  a  E    E  E    Q
|---------------------17--------------18---------------------||
|------------------18------18--------------18---------------o||
|---------------19--------------19------------19-------------||
|---------15s19--------------------19--------------20--------||
|----15-----------------------------------------------------o||
|-15---------------------------------------------------------||


 Bridge
                            Q=134         Q=184
                                          B5
                           3/4           4/4
  Gtr I
  PM--------------------|
  S S E S S E S S E S S E   E E E E E E   W          +W
|-------------------------|-------------|----------|--------|
|-------------------------|-------------|----------|--------|
|-------------------------|-------------|----------|--------|
|-------------------------|-------------|-0--------|-(0)----|
|-------------------------|-------------|-0--------|-(0)----|
|-0-0-0-0-0-0-0-0-0-0-0-0-|-5-7-8-4-5-7-|-0--------|-(0)----|
|
| Gtr II
| PM--------------------|
| S S E S S E S S E S S E   E E E E E E   W          +W
|-------------------------|-------------|----------|--------|
|-------------------------|-------------|----------|--------|
|-------------------------|-------------|-7--------|-(7)----|
|-------------------------|-------------|-x--------|--------|
|-------------------------|-------------|-5--------|-(5)----|
|-0-0-0-0-0-0-0-0-0-0-0-0-|-5-7-8-4-5-7-|----------|--------|


                            G5D5
  +W           +W           E  E  +H.           +W      3x
|------------|------------|----------------||-----------||
|------------|------------|----------------||o---------o||
|------------|------------|-3s10-(10)------||--(10)-----||
|-(0)--------|-(0)--------|-x--------------||-----------||
|-(0)--------|-(0)--------|-1s=8--(8)------||o--(8)----o||
|-(0)--------|-(0)--------|----------------||-----------||
|
| +W           +W           E  E  +H.           +W      3x
|------------|------------|----------------||-----------||
|------------|------------|----------------||o---------o||
|-(7)--------|-(7)--------|-3s=7--(7)------||---(7)-----||
|------------|------------|-x--------------||-----------||
|-(5)--------|-(5)--------|-1s=5--(5)------||o--(5)----o||
|------------|------------|----------------||-----------||


   Verse
    Q=174
    Gtrs I, II
    PM--| ~  PM--|      PM--| ~  PM--|
    |-3-|    |-3-|      |-3-|    |-3-|
    E E E Q  E E E Q    E E E Q  E E E Q
||--------------------|-------------------|
||o-------------------|-------------------|
||--------------------|-------------------|
||--------------------|-------------------|
||o-------5--------4--|-------8--------7--|
||--0-0-0----0-0-0----|-0-0-0----0-0-0----|


  PM--| ~  PM--|      PM--| ~  PM--|
  |-3-|    |-3-|      |-3-|    |-3-|
  E E E Q  E E E Q    E E E Q  E E E Q
|-------------------|--------------------||
|-------------------|-------------------o||
|-------------------|--------------------||
|-------------------|--------------------||
|-------7--------5--|-------8--------4--o||
|-8-8-8----8-8-8----|-5-5-5----0-0-0-----||


    Gtr I
    PM--| ~  PM--|      PM--|  ~~ PM--|
    |-3-|    |-3-|      |-3-|     |-3-|
    E E E Q  E E E Q    E E E  Q  E E E  Q
||--------------------|---------------------|
||o-------------------|---------------------|
||--------------------|---------------------|
||--------------------|---------------------|
||o-------5--------4--|--------8---------7--|
||--0-0-0----0-0-0----|-0-0-0-----0-0-0-----|
|
|   Gtr II
|   PM--| ~  PM--|      PM--|  ~~ PM--|
|   |-3-|    |-3-|      |-3-|     |-3-|
|   E E E Q  E E E Q    E E E  Q  E E E  Q
||--------------------|---------------------|
||o-------------------|---------------------|
||--------------------|---------------------|
||--------------------|---------------------|
||o-------8--------7--|-------12--------10--|
||--0-0-0----0-0-0----|-0-0-0-----0-0-0-----|


  PM--|  ~~ PM--|      PM--| ~  PM--|
  |-3-|     |-3-|      |-3-|    |-3-|
  E E E  Q  E E E Q    E E E Q  E E E Q
|--------------------|--------------------||
|--------------------|-------------------o||
|--------------------|--------------------||
|--------------------|--------------------||
|--------7--------5--|-------8--------4--o||
|-8-8-8-----8-8-8----|-5-5-5----0-0-0-----||
|
| PM--|  ~~ PM--|      PM--| ~  PM--|
| |-3-|     |-3-|      |-3-|    |-3-|
| E E E  Q  E E E Q    E E E Q  E E E Q
|--------------------|--------------------||
|--------------------|-------------------o||
|--------------------|--------------------||
|--------------------|-------7------------||
|-------10--------8--|----------------7--o||
|-8-8-8-----8-8-8----|-5-5-5----0-0-0-----||


    Gtrs I, II
    PM-----------------------------------------|
    S S S S q  S S S S q    S S S S q  S S S S q
||------------------------|-----------------------||
||o-----------------------|----------------------o||
||------------------------|-----------------------||
||------------------------|-----------------------||
||o-----------------------|----------------------o||
||--0-0-0-0-0--0-0-0-0-0--|-0-0-0-0-0--0-0-0-0-0--||


  Gtr I
  PM-----------------------------------------|
  S S S S q  S S S S q    S S S S q  S S S S q
|-----------------------|-----------------------|
|-----------------------|-----------------------|
|-----------------------|-----------------------|
|-----------------------|-----------------------|
|-----------------------|-----------------------|
|-0-0-0-0-0--0-0-0-0-0--|-0-0-0-0-0--0-0-0-0-0--|
|
| Gtr II
| TP      TP TP      TP   TP      TP TP      TP
| Q       Q  Q       Q    Q       Q  Q       Q
|-----------------------|-----------------------|
|-----------------------|-----------------------|
|-----------------------|-----------------------|
|-----------------------|-----------------------|
|-----------------------|-----------------------|
|-0-------1--0-------3--|-0-------1--4-------3--|


                         3/4
  PM-----------------|
  S S S S q  S S S S q    q   H
|-----------------------|--------------|
|-----------------------|--------------|
|-----------------------|--------------|
|-----------------------|--------------|
|-----------------------|--------------|
|-0-0-0-0-0--0-0-0-0-0--|-0------------|
|
| TP      TP TP      TP
| Q       Q  Q       Q    q   Q    Q
|-----------------------|--------------|
|-----------------------|--------------|
|-----------------------|----<3>-------|
|-----------------------|---------<3>--|
|-----------------------|--------------|
|-0-------1--3-------1--|-0------------|


   4/4                                       3/4
    Gtrs I, II
    TP TP TP TP   TP TP TP TP   TP TP TP TP
    Q  Q  Q  Q    Q  Q  Q  Q    Q  Q  Q  Q    q   Q    Q
||--------------|-------------|-------------|----------------||
||o-------------|-------------|-------------|---------------o||
||--------------|-------------|-------------|----<3>---------||
||--------------|-------------|-------------|---------<3>----||
||o-------------|-------------|-------------|---------------o||
||--0--1--0--3--|-0--1--4--3--|-0--1--3--1--|-0--------------||


    Q=147
   4/4                                         3/4
                                  TP TP TP TP
    Q  Q  Q   Q     Q  Q  Q  Q    Q  Q  Q  Q    q   Q    Q     3x
||----------------|-------------|-------------|----------------||
||o---------------|-------------|-------------|---------------o||
||-----------<3>--|-------------|-------------|----<3>---------||
||-----------<3>--|-------------|-------------|---------<3>----||
||o---------------|-------------|-------------|---------------o||
||--0--1--0-------|-0--1--4--3--|-0--1--3--1--|-0--------------||


                     >
  PM
  q   Q     Q       +H.          +H.          +H.
|----------------|------------|------------|----------||
|----------------|------------|------------|----------||
|----<3>--(<3>)--|-(<3>)------|-(<3>)------|-(<3>)----||
|----------<3>---|-(<3>)------|-(<3>)------|-(<3>)----||
|----------------|------------|------------|----------||
|-3--------------|------------|------------|----------||


   UGH, More Of This Shit
   4/4
    Gtr I
    PM-------------------------------------
    S S Q.   S S Q.     S S Q.   S S Q.
||--------------------|-------------------|
||o-------------------|-------------------|
||--------------------|-------------------|
||--------------------|-------------------|
||o-------------------|-------------------|
||--0-0-0----1-1-1----|-4-4-4----3-3-3----|
|
|   Gtr II
|   PM-------------------------------|
|   S S Q.   S S Q.     S S Q.   S S Q.
||--------------------|-------------------|
||o-------------------|-------------------|
||--------------------|-------------------|
||--------------------|-------------------|
||o-------------------|-------------------|
||--0-0-0----1-1-1----|-4-4-4----3-3-3----|


 -----------------------------|
   S S Q.     S S Q.      S S Q.     H
|----------------------|-------------------|
|----------------------|------------<3>----|
|----------------------|------------<3>----|
|----------------------|-------------------|
|----------------------|-------------------|
|--0-0-0------1-1-1----|--4-4-4------------|
|
|  TP         TP          TP
|  H          H           H          H
|----------------------|-------------------|
|----------------------|-------------------|
|----------------------|-----------<10>----|
|----------------------|-----------<10>----|
|----------------------|-/8----------------|
|-/8--------/11--------|-------------------|


  PM-------------------------------|
  S S Q.   S S Q.     S S Q.   S S Q.     W              W
|-------------------|-------------------|--------------|----------||
|-------------------|-------------------|--------------|---------o||
|-------------------|-------------------|-6tr10--------|-5tr9-----||
|-------------------|-------------------|--------------|----------||
|-------------------|-------------------|--------------|---------o||
|-0-0-0----1-1-1----|-4-4-4----3-3-3----|--------------|----------||
|
| PM-------------------------------|
| S S Q.   S S Q.     S S Q.   S S Q.     W              W
|-------------------|-------------------|--------------|----------||
|-------------------|-------------------|--------------|---------o||
|-------------------|-------------------|-3tr6---------|-2tr5-----||
|-------------------|-------------------|--------------|----------||
|-------------------|-------------------|--------------|---------o||
|-0-0-0----1-1-1----|-4-4-4----3-3-3----|--------------|----------||


 Outro
                          Q=184
  >
                          PM--------|           TP
  W          +W           S S e S S e E E E E   w
|----------|------------|---------------------|------*|
|----------|------------|---------------------|------*|
|-5--------|-(5)--------|-------------2p0-----|------*|
|----------|------------|-----------------3p2-|------*|
|----------|------------|---------------------|------*|
|----------|------------|-0-0-0-0-0-0---------|-0----*|
|
| >
|                         PM--------|           TP
| W          +W           S S e S S e E E E E   w
|----------|------------|---------------------|------*|
|----------|------------|---------------------|------*|
|-2--------|-(2)--------|-------------5-------|------*|
|----------|------------|---------------8p7p5-|------*|
|----------|------------|---------------------|------*|
|----------|------------|-0-0-0-0-0-0---------|-0----*|




--------------------------------------------------------------------------------


Duration Legend
---------------
W - whole; H - half; Q - quarter; E - 8th; S - 16th; T - 32nd; X - 64th; a - acciaccatura
+ - note tied to previous; . - note dotted; .. - note double dotted
Uncapitalized letters represent notes that are staccato (1/2 duration)
Irregular groupings are notated above the duration line
Duration letters will always appear directly above the note/fret number it represents the
duration for.  Duration letters with no fret number below them represent rests.  Multi-
bar rests are notated in the form Wxn, where n is the number of bars to rest for.  Low
melody durations appear below the staff

Tablature Legend
----------------
 h   - hammer-on
 p   - pull-off
 b   - bend
 pb  - pre-bend
 r   - bend release (if no number after the r, then release immediately)
 /\  - slide into or out of (from/to "nowhere")
 s   - legato slide
 S   - shift slide
 - natural harmonic
[n]  - artificial harmonic
n(n) - tapped harmonic
 ~   - vibrato
 tr  - trill
 T   - tap
 TP  - trem. picking
 PM  - palm muting
\n/  - tremolo bar dip; n = amount to dip
 \n  - tremolo bar down
 n/  - tremolo bar up
/n\  - tremolo bar inverted dip
 =   - hold bend; also acts as connecting device for hammers/pulls
 <> - volume swell (louder/softer)
 x   - on rhythm slash represents muted slash
 o   - on rhythm slash represents single note slash

Misc Legend
-----------
 |  - bar
||  - double bar
||o - repeat start
o|| - repeat end
*|  - double bar (ending)
 :  - bar (freetime)
 $  - Segno
 &  - Coda
Tempo markers -  = BPM(8/16=s8/s16), where s8 = swing 8ths, s16 = swing 16ths

            
            
Suggest correction
Creating personal tab
Creating personal tab
You can edit any tab online and save it as your Personal.

You can edit, replace or remove any tab part or add personal notes – all changes will be seen only by you.

Personal tabs can be accessed anytime from any device, even offline.
Learn more »
comments
print report bad tab
3 comments total.
+1 reply
Shadows_Fall666 10 Mar 05, 2009 01:03 AM

sorrry,
but some bits are awfully wrong

0 reply
KevinGuitarGod 51 Oct 14, 2009 05:07 PM

||----------------------|-----------------------|
||o---------------------|-----------------------|
||--------------2p0-----|-----------------------I
||------------------3p2-|------------------3p=2-|
||o---------------------|-------4h5-------------|
||--0-0-0-0-0-0---------|-0-0-0-----0-0-0-------I

should actually be

||----------------------|-----------------------|
||o---------------------|-----------------------|
||--------------7-------|-----------------------I
||---------------10-8-7-|-----------------------|
||o---------------------|-------4h5-------8p7---|
||--0-0-0-0-0-0---------|-0-0-0-----0-0-0-------I

thats all I got haha.
hope this helps :)

0 reply
KevinGuitarGod 51 Oct 14, 2009 05:09 PM

oops I meant

||----------------------|-----------------------|
||o---------------------|-----------------------|
||----------------------|-----------------------I
||--------------7-------|-----------------------|
||o--------------10-8-7-|-------4h5-------8p7---|
||--0-0-0-0-0-0---------|-0-0-0-----0-0-0-------I

Thar we go!

guest
You may want to rate the tab now too:
select rating
Wanna post a correction for this tab? Suggest correction