Oops, an error
Loading. Please wait.

It Never Ends bass

version 1
version 1

Whole song

Interactive

17,590 views 9 this week
4 commentsread comments
1 2 3 4 5
x 4
add to favorites
×
Save as Personal and add changes to this tab that will be seen only by you. Learn more ›
×
You can save this tab as Personal to edit and correct it or add notes. All changes will be seen only by you. Learn more »
launch autoscroll
font size
0
reset
guitar tuner
edit
Autoscroll
slow
fast
+/-
esc
set tempo
stop
Author
Artist: Bring Me The Horizon
Song: It Never Ends
Tuning: Drop C;
C,G,C,F

Heres my cover it WILL help. 
http://www.youtube.com/watch?v=kYR6Hs0nRH8&feature=channel_video_title Please watch it,

Any questions use the ask box on:
http://get-off-your-knees.tumblr.com/

I realised that this song hadn't been tabbed for bass yet, and decided to give it a go.
I hope this helps anybody who wants to learn this.
And sorry if it's a little hard to understand at times.
This is my first tab so yeah, have fun with it and comment with any eventual corrections.
Cheers :)

Intro pt.1 x2 (0:02-0:19) *roughly (1's not 11's)
G---------------------------------------------------------------------------|
D---------------------------------------------------------------------------|
A---555555555555-555555--3-3-3--1111-111111-1111-11111-3-3-3----------------| 
D---------------------------------------------------------------------------|

Intro pt.2 x1 (0:20-0:38) (1's not 11's)
|---------------------------------------------------------------------------|
|---------------------------------------------------------------------------|
|---5555555555555555-3-55555555--33333333--1111111111111111-0-11111111------|
|---------------------------------------------------------------------------|

|---------------------------------------------------------------------------|
|---------------------------------------------------------------------------|
|---33333333-------------5b----------5555-5b----11111111111111111-3---------|
|-----------------0-0-0-------0000------------------------------------------|

Verse pt.1 x2 (0:39-0:56) (1's not 11's) 
|---------------------------------|1st time|-2nd time-|---------------------|
|----------(12 not 1&2)-----------|--------|-end with-|---------------------|
|---555--555-55/1212--111--111-1--|1/30303-|-33333333-|---------------------|
|---------------------------------|--------|----------|---------------------|

Verse pt.2 x2 (0:57-1:14) (orchestral sounding bit)
|---------------------------------------------------------------------------|
|---------------------------------------------------------------------------|
|---5-5-5-5-5-5-5-5--3--1-1-1-1-1-1-1-1--3----------------------------------|
|---------------------------------------------------------------------------|

Pre-Chorus x1 (1:15-1:27)
|---------------------------------------------------------------------------|
|---------------------------------------------------------------------------|
|-----------------------3h5-3h55555555---3h5-5p33333333---------------------|
|---55555555--88888888-----------------------------------55555555--88888888-|

Chorus x2(1's not 11's) (1:28-1:46)
|---------------------------------------------|1st time|---|----------------|
|---------------------------------------------|--------|---|-<---2nd time---|
|---55-555-55-555-88-888-333-3h5p3-1111111111-|--333---|-3-|----------------|
|---------------------------------------------|-----5p3|---|----------------|

2nd Verse pt.1 x1 (1:47-2:04)
|---------------------------------------------------------------------------|
|---------------------------------------------------------------------------|
|---1-1-1-1------------------------5----------------------------------------|
|------------5--6--8--5---00000000----0-0-{00000000000000}*-----------------|

2nd Verse pt.1 continued. (2:05-2:21)
|---7777--------------------------------7777--------------------------------|
|----------------------0-0--------------------------------------------------|
|----------------------------------------------------------55--11/13b-------|
|----------000---0000------00-00000000*------00 -000000000------------------|

2nd Verse pt.1 continued. (2:22-2:30)
|---------------------------------------------------------------------------|
|---------------------------------------------------------------------------|
|------------------------111111--333333-------------------------------------|
|--000000-000000-000000*----------------------------------------------------|

*Play these parts (the opens on the low C)
in time with the music and for as long as it goes.
It sounds almost like a galloping type thing.
It's not too hard to work out, and i cbf to type it out correctly, soz :P 

Then:

2nd Verse pt.2 x2 (similar to intro part 2) (2:31-2:49)
|---------------------------------------------------------------------------|
|---------------------------------------------------------------------------|
|--5555555555555555-3-55555555--33333333--1111111111111111-0-11111111--3333-|
|---------------------------------------------------------------------------|

Pre-Chorus 2 (10's and 12's not 1's,2's, and 0's) (2:50-3:00)
|---------------------------------------------------------------------------|
|---------------------------------------------------------------------------|
|---------------------------------------------------------------------------|
|---55555555555--8888--00000000--1010101010101010--5555555/12---------------|

Pre-Choorus 2 continued. (3:01-3:06)
|---------------------------------------------------------------------------|
|---------------------------------------------------------------------------|
|---3h5-3h55555555---3h5-5p33333333-----------------------------------------|
|---------------------------------------------------------------------------|

Chorus x2(1's not 11's) (3:07-3:30)
|---------------------------------------------|1st time|--------------------|
|---------------------------------------------|--------|--------------------|
|---55-555-55-555-88-888-333-3h5p3-1111111111-|--333---|--------------------|
|---------------------------------------------|-----5p3|--------------------|

Play this bit after the chorus the second time...
|---------------------------------------------------------------------------|
|---------------------------------------------------------------------------|
|---------------------------------------------------------------------------|
|---5555--7777--88888888--5555--7777----------------------------------------|

Quiet Part ~ No need to play anything here... (3:31-3:47)

Ending Bridge x4 (3:48-4:30)
|---------------------------------------------------------------------------|
|---------------------------------------------------------------------------|
|---111-1111-111-1111--333--555-5555-555-5555--333--------------------------|
|---------------------------------------------------------------------------|

And There you have it. sorry if it gets confusing at times,
I'm sure you can figure out most of the timing and such.
Comment your questions/corrections and such.
Thank you,

- Cameron
 
	

            
            
Suggest correction
Creating personal tab
Creating personal tab
You can edit any tab online and save it as your Personal.

You can edit, replace or remove any tab part or add personal notes – all changes will be seen only by you.

Personal tabs can be accessed anytime from any device, even offline.
Learn more »
comments
print report bad tab
4 comments total. Showing first comments.
0 reply
horizonaflame 430 Jan 31, 2011 10:03 AM

Okay, so i made my version of this tab just 2 days ago and im posting it today, & ik that this isnt 100% but mine should be closer because of these reasons
1- should be played in drop C
2- your first verse isn't accurate
3- you got the frets right, but it should be in drop c, so technically your playing a whole step above what it should be

if u want any suggestions or want to hear my ideas, message me, and Im sorry if i sounded like a bass expert in my critiscm, i meant it in a positive way actually

0 reply
horizonaflame 430 Feb 16, 2011 04:50 PM

hey, you know you can update the tab, right? so you should change it to drop c and ill give it a better rating, cos most people wont know wat tuning its really in

0 reply
Hotchilli63 51 Mar 02, 2011 08:31 PM

thanks man i will :D

guest
You may want to rate the tab now too:
select rating
Wanna post a correction for this tab? Suggest correction