Oops, an error
Loading. Please wait.

Off The Heezay tab

version 1
version 1

Whole song

Interactive

48,084 views 9 this week
24 commentsread comments
1 2 3 4 5
x 22
add to favorites
×
Save as Personal and add changes to this tab that will be seen only by you. Learn more ›
×
You can save this tab as Personal to edit and correct it or add notes. All changes will be seen only by you. Learn more »
launch autoscroll
font size
0
reset
how to read this tab
guitar tuner
edit
Autoscroll
slow
fast
+/-
esc
set tempo
stop
                              OFF THE HEEZAY
                            Bring Me The Horizon
                 (From The 2006 Album Count Your Blessings)


Transcribed by Jonathan Casper (confinedforever)

Gtr 1 - Tuning Drop B - (B F# B E G# C#)

/ - SLIDE UP TO          h - HAMMER ON
\ - SLIDE DOWN TO        p - PULL OF
~ - HOLD NOTE            * - PALM MUTE
t - TREMOLO PICKING     [] - ARTIFICAL PINCH HARMONIC


IM SO GLAD I TABBED THIS CUZ NO ONE ELSE WOULD SO HERES WHAT I COULD MAKE OUT OF THE 
RATE AND COMMENT PLEASE!!


AND I COULD ONLY TAB THE RHYTHM GUITAR (CURTIS) AND SOME OF LEE'S PARTS AS WELL BUT ITS 
PRETTY MUCH THE SAME BUT I COULDN'T FIGURE OUT THE SOLO IN THE BEGINNING SO I'LL PUT 
IN SOON!


 Rhythm to intro solo
|--------------------------------------|
|--------------------------------------|
|--------------------------------------|
|--11-----13-----9---------------------|
|--8------10-----7----88-77-55-44------|
|--8------10-----7----88-77-55-44------|
                      ** ** ** **

|-----------------------------------------------------|
|-----------------------------------------------------|
|---------------------------------------------[9]-----|
|-------7----6--------------7----6h7p6h7p6h7----------|
|--5--------------5----5------------------------------|
|----00---00---00---00---00---00----------------------|
     **   **   **   **   **   **

|-----------------------------------------------------|
|-----------------------------------------------------|
|-----------------------------------------------------|
|-------7----6--------------7----6--------------------|
|--5--------------5----5----------------------[8]-----|
|----00---00---00---00---00---00----------------------|
     **   **   **   **   **   **


 Verse 1 (PLAY X2)
|----------------------------------------------------------|
|----------------------------------------------------------|
|----------------------------------------------------------|
|-------7----6---------------------------------------------|
|--5--------------5----8-----8-----8---4---5---0---1-------|
|----00---00---00---00---0-0---0-0---0---0---0---0---------|
     **   **   **   **   * *   * *   *   *   *   *

|-----------------------------------------------------------------------|
|----------------------------------------------------------------[9]\---|
|------------------------------------------------------[12]\------------|
|-----------------------------------------------------------------------|
|--4-----4-----4----8-----8-----8---5-----5-----5-----------------------|
|----0-0---0-0---0----0-0---0-0---0---0-0---0-0---0-00--------00--------|
     * *   * *   *    * *   * *   *   * *   * *   * **        **

|----------------------------------------------------------|
|----------------------------------------------------------|
|----------------------------------------------------------|
|-------7----6---------------------------------------------|
|--5--------------5----8-----8-----8---4---5---0---1-------|
|----00---00---00---00---0-0---0-0---0---0---0---0---------|
     **   **   **   **   * *   * *   *   *   *   *

|------------------------------------------------------------------|
|------------------------------------------------------------------|
|------------------------------------------------------------------|
|------------------------------------------------------------------|
|--4-----4-----4----8-----8-----8---5-----5-----5---33-44-11-33----|
|----0-0---0-0---0----0-0---0-0---0---0-0---0-0---0-33-44-11-33----|
     * *   * *   *    * *   * *   *   * *   * *   * ** ** ** **

  Pre Breakdown
|---------------------------------|
|---------------------------------|
|---------------------------------|
|---------------------------------| x4
|--00-00-00-00-00-00-00-00--------|
|--00-00-00-00-00-00-00-00--------|
   ** ** ** ** ** ** ** **

|-----------------------------------------------------------|
|-----------------------------------------------------------|
|-----------------------------------------------------------|
|-----------------------------------------------------------| x4
|--00-00-00-00----00-00-00----00-00-00----33-44-11-33-------|
|--00-00-00-00----00-00-00----00-00-00----33-44-11-33-------|
   ** ** ** **    ** ** **    ** ** **    ** ** ** **

  Breakdown
|---------------------------------------------------|
|---------------------------------------------------|
|------------------------------------------[9]/-----|
|------------------------------------[7]/-----------|
|--0-3-1---0-3-1----yeah-yeah-yeah------------------|
|--0-3-1---0-3-1------------------------------------|
   * * *   * * *

|--------------------------------------------------------------------------|
|-----------------------------------------------------------------1/-------|
|---------------------------------[9]/----------------------------2/--11\--|
|---------------------------[7]/--------------------------------------12\--|
|--0-2-1---003-2-1---0-2-1---------------0-2-1---003-2-1---0-2-1-----------|
|--0-2-1---003-2-1---0-2-1---------------0-2-1---003-2-1---0-2-1-----------|
   * * *   *** * *   * * *               * * *   *** * *   * * *

|-------------------------------------------------------------------------|
|------------------------------------------------------------1/-----------|
|------------------------------------------------------------2/----[9]----|
|-------------------------------------------------------------------------|
|--0-2-1---003-2-1---0-2-1---bass---0-2-1---003-2-1---0-2-1---------------|
|--0-2-1---003-2-1---0-2-1----------0-2-1---003-2-1---0-2-1---------------|
   * * *   *** * *   * * *          * * *   *** * *   * * *

|--------------------------------------------------------------------------|
|-----------------------------------------------------------------1/-------|
|---------------------------------[9]/----------------------------2/--11\--|
|---------------------------[7]/--------------------------------------12\--|
|--0-2-1---003-2-1---0-2-1---------------0-2-1---003-2-1---0-2-1-----------|
|--0-2-1---003-2-1---0-2-1---------------0-2-1---003-2-1---0-2-1-----------|
   * * *   *** * *   * * *               * * *   *** * *   * * *

|--------------------------------------------------------------------------|
|--------------------------------------------------------------------------|
|--------------------------------------------------------------------------|
|--------------------------------------------------------------------666---|
|--0-2-1---003-2-1---0-2-1---bass---0-2-1---003-2-1---0-3-2-1--555---------|
|--0-2-1---003-2-1---0-2-1----------0-2-1---003-2-1---0-3-2-1--------------|
   * * *   *** * *   * * *          * * *   *** * *   * * * *  ***   ***

  Verse 2
|-------------------------------------------------------|
|-------------------------------------------------------|
|-------------------------------------------------------|
|--------------------6h9p6----5h8p5----4h7p4------------|
|--5h8p5----------------------------------------5h8p5---|
|--------0-00-0-0-00-------00-------00-------00---------|
         * ** * * **       **       **       **

|--------------------------------------|
|--------------------------------------|
|--------------------------------------|
|----------------------------5h8p5-----|
|------------------4h7p4---------------|
|--0-00-0-0-00-0-7-------0-8-----------|
   * ** * * ** * *       * *

|-------------------------------------------------------|
|-------------------------------------------------------|
|-------------------------------------------------------|
|--------------------6h9p6----5h8p5----4h7p4------------|
|--5h8p5----------------------------------------5h8p5---|
|--------0-00-0-0-00-------00-------00-------00---------|
         * ** * * **       **       **       **

|------------------------------------------------|
|------------------------------------------------|
|-----------------7h10p7h10p7h10--6h9p6h9p6h9----|
|------------------------------------------------|
|------------------------------------------------|
|--0-00-0-0-00-0---------------------------------|
   * ** * * ** *

|-------------------------------------------------------|
|-------------------------------------------------------|
|-------------------------------------------------------|
|--------------------6h9p6----5h8p5----4h7p4------------|
|--5h8p5----------------------------------------5h8p5---|
|--------0-00-0-0-00-------00-------00-------00---------|
         * ** * * **       **       **       **

|--------------------------------------|
|--------------------------------------|
|--------------------------------------|
|----------------------------5h8p5-----|
|------------------4h7p4---------------|
|--0-00-0-0-00-0-7-------0-8-----------|
   * ** * * ** * *       * *

|-------------------------------------------------------|
|-------------------------------------------------------|
|-------------------------------------------------------|
|--------------------6h9p6----5h8p5----4h7p4------------|
|--5h8p5----------------------------------------5h8p5---|
|--------0-00-0-0-00-------00-------00-------00---------|
         * ** * * **       **       **       **

|--------------------------------------------------------------------------|
|--------------------------------------------------------------------------|
|-----------------7h10p7h10p7h10-6h9p6h9p6h9-9h12p9h12p9h12-7h10p7h10p7h10-|
|--------------------------------------------------------------------------|
|--------------------------------------------------------------------------|
|--0-00-0-0-00-0-----------------------------------------------------------|
   * ** * * ** *

  Verse 3
|-------------------------------------------------------|
|-------------------------------------------------------|
|-------------------------------------------------------|
|--------------------6h9p6----5h8p5----4h7p4------------|
|--5h8p5----------------------------------------5h8p5---|
|--------0-00-0-0-00-------00-------00-------00---------|
         * ** * * **       **       **       **

|-------------------------------|
|-------------------------------|
|-------------------------------|
|-------------------------------|
|---------------3-3-0--1-1-1----|
|--0-00-0-0-0-0-3-3-0--1-1-1----|
   * ** * * * *     *

|-------------------------------------------------------|
|-------------------------------------------------------|
|-------------------------------------------------------|
|--------------------6h9p6----5h8p5----4h7p4------------|
|--5h8p5----------------------------------------5h8p5---|
|--------0-00-0-0-00-------00-------00-------00---------|
         * ** * * **       **       **       **

|------------------------------------------------|
|------------------------------------------------|
|-----------------7h10p7h10p7h10--6h9p6h9p6h9----|
|------------------------------------------------|
|------------------------------------------------|
|--0-00-0-0-00-0---------------------------------|
   * ** * * ** *

|-------------------------------------------------------|
|-------------------------------------------------------|
|-------------------------------------------------------|
|--------------------6h9p6----5h8p5----4h7p4------------|
|--5h8p5----------------------------------------5h8p5---|
|--------0-00-0-0-00-------00-------00-------00---------|
         * ** * * **       **       **       **

|-------------------------------|
|-------------------------------|
|-------------------------------|
|-------------------------------|
|---------------3-3-0--1-1-1----|
|--0-00-0-0-0-0-3-3-0--1-1-1----|
   * ** * * * *     *

|-------------------------------------------------------|
|-------------------------------------------------------|
|-------------------------------------------------------|
|--------------------6h9p6----5h8p5----4h7p4------------|
|--5h8p5----------------------------------------5h8p5---|
|--------0-00-0-0-00-------00-------00-------00---------|
         * ** * * **       **       **       **

|--------------------------------------------------------------------------|
|--------------------------------------------------------------------------|
|-----------------7h10p7h10p7h10-6h9p6h9p6h9-9h12p9h12p9h12-7h10p7h10p7h10-|
|--------------------------------------------------------------------------|
|--------------------------------------------------------------------------|
|--0-00-0-0-00-0-----------------------------------------------------------|
   * ** * * ** *


|------------------------------------------------------|
|------------------------------------------------------|
|------------------------------------------------------|
|------------------------------------------------------|  x4
|--00-00-00---00-00-0-0-0-0---00-00-0-3-3-3--1-1-1-----|
|--00-00-00---00-00-0-0-0-0---00-00-0-3-3-3--1-1-1-----|
   ** ** **   ** ** * * *     ** ** *

|------------------------------|
|------------------------------|
|------------------------------|
|--0-------------3--1----------|
|--0-------------3--1----------|
|--0-------------3--1----------|

|------------------------------------------|
|------------------------------------------|
|------------------------------------------|
|------------------------------------------|  x4
|--00-00-00---00-00---00-00-00---3--1------|
|--00-00-00---00-00---00-00-00---3--1------|
   ** ** **   ** **   ** ** **

  Chorus 1 (PLAY x3)
|--------------------------------------------------------------------------|
|---------------------------------------------------13-11-------11---------|
|---------------------------------------------------------14-12---14-12-10-|
|-----7---7h8-----7---7h8-----7h8p7-----7---7h8----------------------------|
|--------------------------------------------------------------------------|
|-0-0---0-----0-0---0-----0-0-------8-8---8-----8-8------------------------|
  * *   *     * *   *     * *       * *   *     * *

|----------------------------------------------------------------------------|
|---------------------------------------------------------------13h15p13-----|
|--------------------------------------------------------12h14h15-------14---|
|-----7---7h8----7---7h8----7h8p7-----7---7h8----12h14h15--------------------|
|----------------------------------------------------------------------------|
|-0-0---0----0-0---0----0-0-------8-8---8----8-8-----------------------------|
  * *   *    * *   *    * *       * *   *    * *

  Verse 4 (PLAY x2)
|-----------------------------------------------------------------------|
|------------------------13-11------------------------------------------|
|------------------------------14----------------------------------10---|
|-----7---7h8----7---7h8--------------7---7h8-----7---7h8--------12-----|
|----------------------------------------------------------10-12--------|
|-0-0---0----0-0---0--------------8-8---8-----8-8---8-------------------|
  * *   *    * *   *              * *   *     * *   *      *  *

|-----------------------------------------------------------|
|-----------------------------------------------------------|
|-----------------------------------------------------------|
|-----7---7h8-----7---7h8-----7h8p7-----7---7h8-------------|
|-----------------------------------------------------------|
|-5-5---5-----5-5---5-----5-5-------7-7---7-----7-7---------|
  * *   *     * *   *     * *       * *   *     * *

|----------------------------------------------|
|-----------------------------12h13h15---------|
|--------------------11h13h14------------------|
|-----------10h12h13---------------------------|
|--10h12h13------------------------------------|
|----------------------------------------------|


  (PLAY x2)  TAPS
|--17p13p10(x8)-18p13p10(x8)-------------------------------------------|
|----------------------------19p15p13(x8)-17p13p10(x4)-----------------|
|------------------------------------------------------17p14p12(x4)----|
|----------------------------------------------------------------------|
|----------------------------------------------------------------------|
|----------------------------------------------------------------------|


  Outro (PLAY x3)
|-------------------------------------------------------------------------|
|-------------------------------------------------------------------------|
|-------------------------------------------------------------------------|
|--19---19-19-19/20---20-20-20\19-19-19\17-17-17-17---17-17/15--15\17-----|
|-------------------------------------------------------------------------|
|-------------------------------------------------------------------------|

|------------------------|
|------------------------|
|--------------/19-------|
|---12/------------------|
|------------------------|
|------------------------|


  END

            
            
Suggest correction
Creating personal tab
Creating personal tab
You can edit any tab online and save it as your Personal.

You can edit, replace or remove any tab part or add personal notes – all changes will be seen only by you.

Personal tabs can be accessed anytime from any device, even offline.
Learn more »
comments
print report bad tab
24 comments total. Showing first comments.
0 reply
confinedforever 977 Mar 08, 2007 11:14 PM

AHH the ****ed up my taps but u should get the jest of it

+1 reply
confinedforever 977 Mar 09, 2007 03:05 AM

i just listened carefully and the chorus is slightly different heres the fix!!

Chorus 1 (PLAY x3)
|--------------------------------------------------------------------------|
|---------------------------------------------------13-11-------11---------|
|---------------------------------------------------------14-12---14-12-10-|
|-----7---7h8-----7---7h8-----7h8p7-----7---7h8----------------------------|
|--------------------------------------------------------------------------|
|-0-0---0-----0-0---0-----0-0-------8-8---8-----8-8------------------------|
* * * * * * * * * * * * *

|----------------------------------------------------------------------------|
|---------------------------------------------------------------13h15p13-----|
|--------------------------------------------------------12h14h15-------14---|
|-----7---7h8----7---7h8----7h8p7-----7---7h8----12h14h15--------------------|
|----------------------------------------------------------------------------|
|-0-0---0----0-0---0----0-0-------8-8---8----8-8-----------------------------|
* * * * * * * * * * * * *

Verse 4 (PLAY x2)
|-----------------------------------------------------------------------|
|------------------------13-11------------------------------------------|
|------------------------------14----------------------------------10---|
|-----7---7h8----7---7h8--------------7---7h8-----7---7h8--------12-----|
|----------------------------------------------------------10-12--------|
|-0-0---0----0-0---0--------------8-8---8-----8-8---8-------------------|
* * * * * * * * * * * * * *

|-----------------------------------------------------------|
|-----------------------------------------------------------|
|-----------------------------------------------------------|
|-----7---7h8-----7---7h8-----7h8p7-----7---7h8-------------|
|-----------------------------------------------------------|
|-5-5---5-----5-5---5-----5-5-------7-7---7-----7-7---------|
* * * * * * * * * * * * *

|----------------------------------------------|
|-----------------------------12h13h15---------|
|--------------------11h13h14------------------|
|-----------10h12h13---------------------------|
|--10h12h13------------------------------------|
|----------------------------------------------|

0 reply
tait100 10 Mar 09, 2007 08:19 AM

You do all the BMTH tabs and for that i love you :)
what would i do without you !
legend!
cheers
xxxx

guest
You may want to rate the tab now too:
select rating
Wanna post a correction for this tab? Suggest correction