Oops, an error
Loading. Please wait.

Oh No tab

version 1
version 1

Whole song

Interactive

6,683 views 42 this week
21 commentsread comments
1 2 3 4 5
x 6
add to favorites
×
Save as Personal and add changes to this tab that will be seen only by you. Learn more ›
×
You can save this tab as Personal to edit and correct it or add notes. All changes will be seen only by you. Learn more »
launch autoscroll
font size
0
reset
how to read this tab
guitar tuner
edit
Autoscroll
slow
fast
+/-
esc
set tempo
stop
Oh No - Bring Me The Horizon
Tuning: Drop C (C G C F A D)

[Verse] (delay)
D|--------------|
A|--------------|
F|--11--14------|
C|--12--12--11--| x4
G|----------12--| 
C|--------------|


[Pre-Chorus]
D|---------------------------------------------------------------------------------------|
A|---------------------------------------------------------------------------------------|
F|----------------11-11-----------------11-11-----------------9-9-----------------9-9----|
C|-12-11-12-11-12--------12-11-12-11-12--------12-11-12-11-12------12-11-12-11-12--------| x2
G|---------------------------------------------------------------------------------------|
C|---------------------------------------------------------------------------------------|


[Chorus]
D|---------------------------------------------------------------------------------------|
A|---------------------------------------------------------------------------------------|
F|----------------18-18-----------------18-18----------------17-17-----------------17-17-|
C|-19-18-19-18-19--------19-18-19-18-19--------19-18-19-18-19-------19-18-19-18-19-------| x2
G|---------------------------------------------------------------------------------------|
C|---------------------------------------------------------------------------------------|


[Post-Chorus]
D|---------------------------------------------------------------------------------------|
A|---------------------------------------------------------------------------------------|
F|----------------18-18-----------------18-18----------------17-17-----------------17-17-|
C|-19-18-19-18-19--------19-18-19-18-19--------19-18-19-18-19-------19-18-19-18-19-------| x2
G|---------------------------------------------------------------------------------------|
C|---------------------------------------------------------------------------------------|


[Verse] (delay)
D|--------------|
A|--------------|
F|--11--14------|
C|--12--12--11--| x4
G|----------12--| 
C|--------------|


[Pre-Chorus]
D|---------------------------------------------------------------------------------------|
A|---------------------------------------------------------------------------------------|
F|----------------11-11-----------------11-11-----------------9-9-----------------9-9----|
C|-12-11-12-11-12--------12-11-12-11-12--------12-11-12-11-12------12-11-12-11-12--------| x2
G|---------------------------------------------------------------------------------------|
C|---------------------------------------------------------------------------------------|


[Chorus]
D|---------------------------------------------------------------------------------------|
A|---------------------------------------------------------------------------------------|
F|----------------18-18-----------------18-18----------------17-17-----------------17-17-|
C|-19-18-19-18-19--------19-18-19-18-19--------19-18-19-18-19-------19-18-19-18-19-------| x2
G|---------------------------------------------------------------------------------------|
C|---------------------------------------------------------------------------------------|


[Post-Chorus]
D|---------------------------------------------------------------------------------------|
A|---------------------------------------------------------------------------------------|
F|----------------18-18-----------------18-18----------------17-17-----------------17-17-|
C|-19-18-19-18-19--------19-18-19-18-19--------19-18-19-18-19-------19-18-19-18-19-------| x2
G|---------------------------------------------------------------------------------------|
C|---------------------------------------------------------------------------------------|


[Interlude]
D|------------------|
A|------------------|
F|--11--14--11------|
C|--12--12--12--11--| x4
G|--------------12--| 
C|------------------|


[Chorus] (before break)
D|---------------------------------------------------------------------------------------|
A|---------------------------------------------------------------------------------------|
F|----------------11-11-----------------11-11-----------------9-9-----------------9-9----|
C|-12-11-12-11-12--------12-11-12-11-12--------12-11-12-11-12------12-11-12-11-12--------| x2
G|---------------------------------------------------------------------------------------|
C|---------------------------------------------------------------------------------------|


[Break] (2nd interlude)
D|---------------------------------------------------------------------------------------|
A|---------------------------------------------------------------------------------------|
F|----------------18-18-----------------18-18----------------17-17-----------------17-17-|
C|-19-18-19-18-19--------19-18-19-18-19--------19-18-19-18-19-------19-18-19-18-19-------| x2
G|---------------------------------------------------------------------------------------|
C|---------------------------------------------------------------------------------------|


[Chorus] x2
D|---------------------------------------------------------------------------------------|
A|---------------------------------------------------------------------------------------|
F|----------------18-18-----------------18-18----------------17-17-----------------17-17-|
C|-19-18-19-18-19--------19-18-19-18-19--------19-18-19-18-19-------19-18-19-18-19-------| x2
G|---------------------------------------------------------------------------------------|
C|---------------------------------------------------------------------------------------|


[Outro] (fades out)
D|------------------|
A|------------------|
F|--11--14--11------|
C|--12--12--12--11--| x2
G|--------------12--| 
C|------------------|
Suggest correction
Creating personal tab
Creating personal tab
You can edit any tab online and save it as your Personal.

You can edit, replace or remove any tab part or add personal notes – all changes will be seen only by you.

Personal tabs can be accessed anytime from any device, even offline.
Learn more »
comments
print report bad tab
21 comments total. Showing first comments.
-2 reply
monkey50 76 Jan 17, 2016 12:50 PM

didn't like this contribution

-1 reply
jeno7749 11 Mar 27, 2016 05:39 AM

didnt like this contribution, doesnt help fix it so others can actually use it?? what the fuck

+1 reply
rolandjegorov 12 Oct 05, 2016 12:37 PM

Guys, I don't want to be a party pooper, but is the pre-chorus really right? Sound to me that notes are not in harmony. :/

guest
You may want to rate the tab now too:
select rating
Wanna post a correction for this tab? Suggest correction