Oops, an error
Loading. Please wait.

Pray For Plagues Tab

version 1
version 1
24,093 views 6 this week
5 commentsread comments
1 2 3 4 5
accurate
x 5
add to favorites
launch autoscroll
font size
0
reset
how to read this tab
guitar tuner
Autoscroll
slow
fast
+/-
esc
set tempo
stop
Help us to improve Ultimate-Guitar.com Take our survey!
×
                           PRAY FOR PLAGUES (SOLO)
                            Bring Me The Horizon
                  (From The 2006 Album Count Your Blessings)


Transcribed by Jonathan Casper (confinedforever)

Gtr 1 - Tuning Drop B - (B F# B E G# C#)


1:59 - 2:07
|---------------------------------------------------------------|
|---------------------------------------------------------------|
|---------------------------------------------------------------|
|----------4---------3------------------12----------11----------|
|------6-5-------5-4-------3h5-----12-9--------11-8-------------|
|--0-0-------0-0-------0-0-----0-0---------0-0----------10h12---|
   * *       * *       * *     * *         * *

    2:08 - 2:11
|---------------------------------13-16---------------------16h19---|
|---------------------------12-15---------------------15h18---------|
|---------------------11-14---------------------14h17---------------| 
|---------------10-13---------------------13h16---------------------|
|-------------------------------------------------------------------|
|--00-00-00-00------------------------------------------------------| 
   ** ** ** **

|--18p15----18p15-----17p14----17p14-------|
|--------15-------15--------14-------14----|
|------------------------------------------| 
|------------------------------------------|
|------------------------------------------|
|------------------------------------------| 

    2:12 - 2:24
|--------------------17----------------------|
|-----------------18----18-------------------|
|--------------19----------19----------------|
|-----------19----------------19-------------|x2
|-----17-20----------------------20-17-------|
|--19----------------------------------19----|

|--------------------16----------------------| 
|-----------------17----17-------------------|
|--------------18----------18----------------|
|-----------18----------------18-------------|x2
|-----16-19----------------------19-16-------|
|--18----------------------------------18----|


ya and here's the solo i forgot to add, and  with i fix of the riff that goes before it as well! ENJOY!

-jonathan
Suggest correction
comments
print report bad tab
5 comments total. Showing first comments.
0 reply
BMarkTHorizon89 105 wrote on November 23 2006, 10:56 pm

solo's amazing but you still got the riff partially wrong

1:31 - 1:56
(A)
|---------------------------------------------------------------|
|---------------------------------------------------------------|
|---------------------------------------------------------------|
|----------4---------3------------------12----------11----------|
|------6-5-------5-4-------3h5-----12-9--------11-8-------------|
|--0-0-------0-0-------0-0-----0-0---------0-0----------10h12---|

(B)
|---------------------------------------------------------------|
|---------------------------------------------------------------|
|---------------------------------------------------------------|
|----------4---------3------------------12----------11----------|
|------6-5-------5-4-------3h5-----9-12--------8-11-------------|
|--0-0-------0-0-------0-0-----0-0---------0-0----------10h12---|

(it goes A, B, A, B, A, B) the 9 and 12 switch everytime.)

1:59 - 2:07
|---------------------------------------------------------------|
|---------------------------------------------------------------|
|---------------------------------------------------------------|x1
|----------4---------3------------------12----------11----------|
|------6-5-------5-4-------3h5-----12-9--------11-8-------------|
|--0-0-------0-0-------0-0-----0-0---------0-0----------10h12---|


|---------------------------------------------------------------|
|---------------------------------------------------------------|
|---------------------------------------------------------------|x1
|----------4---------3------------------12----------11----------|
|------6-5-------5-4-------3h5-----9-12--------8-11-------------|
|--0-0-------0-0-------0-0-----0-0---------0-0----------10h12---|

anyways all is good

0 reply
BMarkTHorizon89 105 wrote on November 24 2006, 05:53 pm

oh and now i fixed the solo

-------------------------------13-16----------------------------15-17-18--|
-------------------------12-15-------------------------15-17-18-------------|
-------------------11-14----------------------14-16-17----------------------|
-------------10-13-------------------13-15-16-------------------------------|
----------------------------------------------------------------------------|
-00-00-00-00----------------------------------------------------------------|


then taps
--17p13p10-17p13p10-15p13p10-15p13p10-----------|
------------------------------------------------|
------------------------------------------------|
------------------------------------------------|
------------------------------------------------|
------------------------------------------------|

0 reply
killtrend 73 wrote on July 11 2008, 03:20 pm

slight correction to BMarkTHorizon89, I took what you had and fit it to theory, basically the first run is Diminished followed by Hungarian Minor (u had diminished but you forgot to adjust for the G to B string)

|-------------------------------14-17----------------------------15-16-17----||
|-------------------------13-16-------------------------16-18-19-------------||
|-------------------11-14----------------------14-15-16----------------------||
|-------------10-13-------------------13-15-16-------------------------------||
|----------------------------------------------------------------------------||
|-00-00-00-00----------------------------------------------------------------||

guest
You may want to rate the tab now too:
select rating
Please do not post tabs as comments. Select "correction" instead!