Oops, an error
Loading. Please wait.

Pray For Plagues tab

version 1
version 1
312,660 views 87 this week
51 commentsread comments
1 2 3 4 5
x 82
add to favorites
×
Save as Personal and add changes to this tab that will be seen only by you. Learn more ›
×
You can save this tab as Personal to edit and correct it or add notes. All changes will be seen only by you. Learn more »
launch autoscroll
font size
0
reset
how to read this tab
guitar tuner
edit
Autoscroll
slow
fast
+/-
esc
set tempo
stop
Gtr 1 - Tuning Drop B - (B F# B E G# C#)

(0:00 - 0:03)
C#|-----------------------------------------------------------|
G#|-----------------------------------------------------------|
E |--------------------------------------------------8h11p8---|
B |--1-4-3-1------------------------------7h10p7--------------|
F#|--1-4-3-1-----6--9----5h8p5--4h7p4-------------------------|
B |--1-4-3-1--0-------0---------------0-0--------0-0----------|
   * * *    *                       * *        * *

(0:04 - 0:05)
C#|--------------------------------------|
G#|--------------------------------------|
E |--7---6-6-9-----------------8-10-11---|
B |---------------------7-9-10-----------|
F#|--------------7-9-10------------------|
B |----0---------------------------------|
     *

(0:06 - 0:13)
C#|-----------------------------------------------------------|
G#|-----------------------------------------------------------|
E |-----------------------------------------------------------| (x2)
B |--------------------3----------------------7-----6---------|
F#|----5h8-4-----5-----------6------5h8-4-----------------8---|
B |--0-------0-0---0-0---0-0----0-0-------0-0---0-0---0-0-----|
   *       * *   * *   * *    * *       * *   * *   * *

(0:14 - 0:15)
C#|------------|
G#|------------|
E |---[12]~ ---|
B |------------|
F#|------------|
B |------------|

(0:16 - 0:49)
C#|-----------------------------------------------------------|----------- \
G#|-----------------------------------------------------------| ---------- \
E |-----------------------------------------------------------|  --------- \
B |--------------------3----------------------7-----6---------|    \ both- \ (x2)
F#|----5h8-4-----5-----------6------5h8-4-----------------8---|    ------- \
B |--0-------0-0---0-0---0-0----0-0-------0-0---0-0---0-0-----|     ------ \
   *       * *   * *   * *    * *       * *   * *   * *             \
                                                                     \
C#|---------------------------------------------------------------------|
G#|---------------------------------------------------------------------|
E |------7h10-6------7-----10-----8------7h10-6-----6h9---7h10---8h11---|
B |---------------------------------------------------------------------|
F#|---------------------------------------------------------------------|
B |--0-0---------0-0---0-0----0-0----0-0--------0-0-----0------0--------|
   * *         * *   * *    * *    * *        * *     *      *

(0:50 - 0:53)
C#|---------------------------------------------------|
G#|---------------------------------------------------|
E |----------------------------[12]bend--[14]bend-----|
B |---------------------------------------------------|
F#|--5----7----8----4---------------------------------|
B |----00---00---00---00-00-00------00-00-----00-00---|
     **   **   **   ** ** **      ** **     ** **

(0:54 - 0:57)
C#|-----------------------------------------------------|
G#|-----------------------------------------------------|
E |----------------------------[14]bend--[12]bend-------|
B |-----------------------------------------------------|
F#|--5----7----8----4-------------------------5-4-------|
B |----00---00---00---00-00-00------00-00---------4-3---|
     **   **   **   ** ** **      ** **

(0:58 - 1:00)
C#|--------------|
G#|--------------|
E |--------------|
B |--1-4-5-1-1---|
F#|--1-4-5-1-1---|
B |--1-4-5-1-1---|

(1:01)
C#|-------------|
G#|-------------|
E |-------------|
B |--0-0--0-0---|
F#|--0-0--0-0---|
B |--0-0--0-0---|
   * *  * *

(1:02 - 1:08)
C#|-------------------------------------------------|
G#|-------------------------------------------------|
E |-------------------------------------------------|
B |--0-0--0-0---0-00-00-00---0000000--3-1-0-4-3-1---|
F#|--0-0--0-0---0-00-00-00---0000000--3-1-0-4-3-1---|
B |--0-0--0-0---0-00-00-00---0000000--3-1-0-4-3-1---|
   * *  * *   * ** ** **   *******

(1:09 - 1:17)
C#|--------------------------------------------------------------------|
G#|--------------------------------------------------------------------|
E |---------------------------------------------------------[12]bend---|
B |--0-0--0-0---0-00-00-00---0000000--3-1-0-4-3-1--0-0--0-0------------|
F#|--0-0--0-0---0-00-00-00---0000000--3-1-0-4-3-1--0-0--0-0------------|
B |--0-0--0-0---0-00-00-00---0000000--3-1-0-4-3-1--0-0--0-0------------|
   * *  * *   * ** ** **   *******               * *  * *

(1:18 - 1:24)
C#|-------------------------------------------------|
G#|-------------------------------------------------|
E |-------------------------------------------------|
B |--0-0--0-0---0-00-00-00---0000000--3-1-0-4-3-1---|
F#|--0-0--0-0---0-00-00-00---0000000--3-1-0-4-3-1---|
B |--0-0--0-0---0-00-00-00---0000000--3-1-0-4-3-1---|
   * *  * *   * ** ** **   *******

(1:25 - 1:29)
C#|------------------------------------|
G#|------------------------------------|
E |------------------------------------|
B |--0-0--0-0---0-00-00-00---0000000---|
F#|--0-0--0-0---0-00-00-00---0000000---|
B |--0-0--0-0---0-00-00-00---0000000---|
   * *  * *   * ** ** **   *******

(1:31 - 1:56)
C#|---------------------------------------------------------------|
G#|---------------------------------------------------------------|
E |---------------------------------------------------------------| (x6)
B |----------4---------3-------------------12----------11---------|
F#|------6-5-------5-4-------3h5-----10-12-------9--11------------|
B |--0-0-------0-0-------0-0-----0-0---------0-0----------10h12---|
   * *       * *       * *     * *         * *

(1:57 - 1:58)
C#|--------|
G#|--------|
E |--------|
B |--0-0---|
F#|--0-0---|
B |--0-0---|
   * *

(1:59 - 2:07)
C#|---------------------------------------------------------------|
G#|---------------------------------------------------------------|
E |---------------------------------------------------------------| (x2)
B |----------4---------3-------------------12----------11---------|
F#|------6-5-------5-4-------3h5-----10-12-------9--11------------|
B |--0-0-------0-0-------0-0-----0-0---------0-0----------10h12---|
   * *       * *       * *     * *         * *

(2:08 - 2:11)
C#|--------------------------------13-16---------------------------15-17-18--|
G#|--------------------------12-15------------------------15-17-18-----------|
E |--------------------11-14---------------------14-16-17--------------------|
B |--------------10-13------------------13-15-16-----------------------------|
F#|--------------------------------------------------------------------------|
B |-00-00-00-00--------------------------------------------------------------|
  ** ** ** **

C#|--17p13p10-17p13p10-9p12p16-9p12p16-------------|
G#|------------------------------------------------|
E |------------------------------------------------|
B |------------------------------------------------|
F#|------------------------------------------------|
B |------------------------------------------------|

(2:12 - 2:24) (Solo)
C#|--------------------17----------------------|
G#|-----------------18----18-------------------|
E |--------------19----------19----------------|
B |-----------19----------------19-------------|(x2)
F#|-----17-20----------------------20-17-------|
B |--19----------------------------------19----|

C#|--------------------16----------------------| 
G#|-----------------17----17-------------------|
E |--------------18----------18----------------|
B |-----------18----------------18-------------|(x2)
F#|-----16-19----------------------19-16-------|
B |--18----------------------------------18----|

[Solo Rhythm]
C#|-------------------------------------------------|
G#|-------------------------------------------------|
E |-------------------------------------------------|
B |--0-------------6----------0-------------6--6\---|
F#|--0-------------6----------0-------------6--6\---|
B |--0-------------6---/18----0-------------6--6\---|

(2:25 - 2:32)
C#|---------------------------------------------------|
G#|---------------------------------------------------|
E |---------------------------------------------------|
B |--------------------------------------10-9---------|
F#|-----------"12(x6)-"11(x12)-----11------------11---|
B |--"12(x32)-------------------12----12------12------|
                              *     *       *

(2:33 - 2:40)
C#|-------------------------------------------------------------------|
G#|-------------------------------------------------------------------|
E |----------7---------------------[7]---------7---------7-6--10--6---|
B |--0-3-2-0-7-0-3-2-0-8-7-0-3-2-0-----0-3-2-0-7-0-3-2-0-7-6--10--6---|
F#|--0-3-2-0---0-3-2-0-8-7-0-3-2-0-----0-3-2-0---0-3-2-0--------------|
B |--0-3-2-0---0-3-2-0-8-7-0-3-2-0-----0-3-2-0---0-3-2-0-----0---0----|
   * * * *   * * * *     *     *     * * * *   * * * *     *   *

(2:41 - 2:45)
C#|--------------------------------------------------------|
G#|--------------------------------------------------------|
E |----------7---------------------[7]---------7-----------|
B |--0-3-2-0-7-0-3-2-0-8-7-0-3-2-0-----0-3-2-0-7-0-0-0-0---|
F#|--0-3-2-0---0-3-2-0-8-7-0-3-2-0-----0-3-2-0---0-0-0-0---|
B |--0-3-2-0---0-3-2-0-8-7-0-3-2-0-----0-3-2-0---0-0-0-0---|
   * * * *   * * * *     *     *     * * * *   * * * *

(2:46 - 2:48)
C#|-------------------------------------------------------------------------|
G#|--------------------10h13p10h13p10h13--9h12p9h12p9h12--------------------|
E |--11h14p11h14p11h14-----------------------------------10h13p10h13p10h13--|
B |-------------------------------------------------------------------------|
F#|-------------------------------------------------------------------------|
B |-------------------------------------------------------------------------|

(2:49 - 2:55)
C#|---------------------------------------------------------|
G#|---------------------------------------------------------|
E |--------------------------------------------------[12]---|
B |--0-3-2-0---0-3-2-0-8-0-0---0-3-2-0---0-3-2-0-8-0--------|
F#|--0-3-2-0---0-3-2-0-8-0-0---0-3-2-0---0-3-2-0-8-0--------|
B |--0-3-2-0---0-3-2-0-8-0-0---0-3-2-0---0-3-2-0-8-0--------|
   * * * *   * * * *   * *   * * * *   * * * *   *

(2:56 - 3:01)
C#|------------------------------------------------|
G#|------------------------------------------------|
E |------------------------------------------------|
B |--0-3-2-0---0-3-2-0-8-0-0---0-3-2-0---0-3-2-0---|
F#|--0-3-2-0---0-3-2-0-8-0-0---0-3-2-0---0-3-2-0---|
B |--0-3-2-0---0-3-2-0-8-0-0---0-3-2-0---0-3-2-0---|
   * * * *   * * * *   * *   * * * *   * * * *

(3:02 - 3:03)
C#|---------------------------------------------------|
G#|---------------------------------------------------|
E |------------------------------------------8h11p8---|
B |------------------------------7h107p7--------------|
F#|-----6--9----5h8p5--4h7p4--------------------------|
B |--0-------0---------------0-0---------0-0----------|
   *       *               * *         * *

(3:04 - 3:06)
C#|-----------------------------------------|
G#|-----------------------------------------|
E |--[7]--[6]-6-9-----------------8-10-11---|
B |-----------------------7-9-10------------|
F#|---------------7-9-10--------------------|
B |-----0-----------------------------------|
      *

(3:07 - 3:14)
C#|-----------------------------------------------------------|
G#|-----------------------------------------------------------|
E |-----------------------------------------------------------| (x2)
B |--------------------3----------------------7-----6---------|
F#|----5h8-4-----5-----------6------5h8-4-----------------8---|
B |--0-------0-0---0-0---0-0----0-0-------0-0---0-0---0-0-----|
   *       * *   * *   * *    * *       * *   * *   * *

(3:15 - 3:23)
C#|----------------------------------------------------------------|
G#|----------------------------------------------------------------|
E |----------------------------------------------------------------| (x2)
B |----------------------3-----------------------------------------|
F#|------5h8-4-----5-----------6------5h8-4-----6h9---7h10---5h8---|
B |--0-0-------0-0---0-0---0-0----0-0-------0-0-----0------0-------|
   * *       * *   * *   * *    * *       * *     *      *

(3:24 - 3:33)
C#|---------------------------------------|
G#|---------------------------------------|
E |---------------------------------------|
B |--0-----------0------------------------|
F#|--0-----------0------------------------|
B |--0-----------0----------3-1-0-4-3-1---|

(3:34 - 3:37)
C#|--------------------------------------------------------|
G#|--------------------------------------------------------|
E |--------------------------------------------------------|
B |--0---------------------------------------3-1-0-4-3-1---|
F#|--0-----5h8---4-----5h8---11-----5h8------3-1-0-4-3-1---|
B |--0-0-0-----0---0-0-----0----0-0-----0-0--3-1-0-4-3-1---|
     * *     *   * *     *    * *     * *

(3:38 - 3:57)
C#|--------------------------------------------------------------------|
G#|--------------------------------------------------------------------|
E |-----------------------------------------8-7-5----------------------|
B |--0--------------------------------------------8-7-5----------------|
F#|--0-----5h8---4-----5h8---11-----5h8-----------------8-7-5--6-5-3---|
B |--0-0-0-----0---0-0-----0----0-0-----0-0----------------------------|
     * *     *   * *     *    * *     * *                           /
                                                                   /
C#|---------------------------------------------------------------------- \        /
G#|---------------------------------------------------------------------- \       /
E |--------------------------------------------------------|      / both- \ (x2)
B |--0---------------------------------------3-1-0-4-3-1----------------- \     /
F#|--0-----5h8---4-----5h8---11-----5h8------3-1-0-4-3-1----------------- \    /
B |--0-0-0-----0---0-0-----0----0-0-----0-0--3-1-0-4-3-1---| ------------ \
     * *     *   * *     *    * *     * *

(4:00 - 4:14)
C#|---------------------------------------------------------|
G#|---------------------------------------------------------|
E |--------------------------------------------------[12]---| (x2)
B |--0-3-2-0---0-3-2-0-8-0-0---0-3-2-0---0-3-2-0-8-0--------|
F#|--0-3-2-0---0-3-2-0-8-0-0---0-3-2-0---0-3-2-0-8-0--------|
B |--0-3-2-0---0-3-2-0-8-0-0---0-3-2-0---0-3-2-0-8-0--------|
   * * * *   * * * *   * *   * * * *   * * * *   *

(4:15 - 4:16)
C#|------------|
G#|------------|
E |------------|
B |--0-3-2-0---|
F#|--0-3-2-0---|
B |--0-3-2-0---|
   * * * *


************************************

| h    Hammer-on
| p    Pull-off
| \    Slide down
| /    Slide up
| [n]  Artificial harmonic (Pinch harmonic)

************************************

            
            
Suggest correction
Creating personal tab
Creating personal tab
You can edit any tab online and save it as your Personal.

You can edit, replace or remove any tab part or add personal notes – all changes will be seen only by you.

Personal tabs can be accessed anytime from any device, even offline.
Learn more »
comments
print report bad tab
51 comments total. Showing first comments.
+1 reply
BMarkTHorizon89 105 Nov 17, 2006 06:30 AM

Whats up Jon?? its Mark

This tab is amazing... it sounds harder than it really is... to help you out i fixed some parts and did a part of the solo too, check them out if you want:


0:04 - 0:05
|--------------------------------------|
|--------------------------------------|
|--7---6-6-9-----------------6-8-9-----|
|---------------------7-9-10-----------|
|--------------7-9-10------------------|
|----0---------------------------------|
*

1:09 - 1:17
|-------------------------------------------------------------------|
|-------------------------------------------------------------------|
|-------------------------------------------------------------------|
|--0-0--0-0---0-00-00-00---0000000--3-1-0-4-3-1--0-0--0-0--[11]bend-|
|--0-0--0-0---0-00-00-00---0000000--3-1-0-4-3-1--0-0--0-0-----------|
|--0-0--0-0---0-00-00-00---0000000--3-1-0-4-3-1--0-0--0-0-----------|
* * * * * ** ** ** ******* * * * *


1:31 - 1:56
|---------------------------------------------------------------|
|---------------------------------------------------------------|
|---------------------------------------------------------------|
|----------4---------3------------------12----------11----------|
|------6-5-------5-4-------3h5-----12-9--------11-8-------------|
|--0-0-------0-0-------0-0-----0-0---------0-0----------10h12---|\
* * * * * * * * * *
/
|---------------------------------------------------------------|
|---------------------------------------------------------------|
|---------------------------------------------------------------|
|----------4---------3------------------12----------11----------|
|------6-5-------5-4-------3h5-----9-12--------8-11-------------|
|--0-0-------0-0-------0-0-----0-0---------0-0----------10h12---|
* * * * * * * * * *

1:59 - 2:07
|---------------------------------------------------------------|
|---------------------------------------------------------------|
|---------------------------------------------------------------|
|----------4---------3------------------12----------11----------|
|------6-5-------5-4-------3h5-----12-9--------11-8-------------|
|--0-0-------0-0-------0-0-----0-0---------0-0----------10h12---|
* * * * * * * * * *

|---------------------------------------------------------------|
|---------------------------------------------------------------|
|---------------------------------------------------------------|
|----------4---------3------------------12----------11----------|
|------6-5-------5-4-------3h5-----9-12--------8-11-------------|
|--0-0-------0-0-------0-0-----0-0---------0-0----------10h12---|
* * * * * * * * * *


2:25 - 2:32
|---------------------------------------------------|
|---------------------------------------------------|
|---------------------------------------------------|
|---------------------------------------------------|
|-----------"12(x6)-"11(x12)-----------12-11--------|
|--"12(x32)-------------------12-12-12-------12-15--|
* * *
(Guitar 2 part for this goes like this: )--------------------------
2:25 - 2:32
|---------------------------------------------------|
|-----------"10(x6)-"9(x12--------------------------|
|--"7(x32)------------------------------------------|
|---------------------------------------------------|
|--------------------------------------15-14----11--|
|-----------------------------12-12-12-------12-----|
* * *
---------------------------------------------------------------------
NOW FOR THE SICK SWEEPING ARPEGGIO SOLO:

|--------------------17----------------------|
|-----------------18----18-------------------|
|--------------19----------19----------------|
|-----------19----------------19-------------|x2
|-----17-20----------------------20-17-------|
|--19----------------------------------19----|\
\
[x2] 8 total
|--------------------16----------------------| /
|-----------------17----17-------------------|/
|--------------18----------18----------------|
|-----------18----------------18-------------|x2
|-----16-19----------------------19-16-------|
|--18----------------------------------18----|

+19 reply
alex_rh 10 Dec 17, 2006 11:03 AM

mate why dont you just tab it instead of putting it on comments

+3 reply
if.i.could.fly 41 Jan 17, 2007 12:53 PM

dude how do u tab this stuff? lol purely amazing

guest
You may want to rate the tab now too:
select rating
Wanna post a correction for this tab? Suggest correction