Oops, an error
Loading. Please wait.

Pray For Plagues bass

version 2
version 2

Whole song

13,710 views 3 this week
no commentswrite comment
1 2 3 4 5
3 more votes to show rating
add to favorites
×
Save as Personal and add changes to this tab that will be seen only by you. Learn more ›
×
You can save this tab as Personal to edit and correct it or add notes. All changes will be seen only by you. Learn more »
launch autoscroll
font size
0
reset
guitar tuner
edit
Autoscroll
slow
fast
+/-
esc
set tempo
stop
Tuning= Drop B
Great song, Fun and easy to play! Good luck
Should be mostly right, listen to the song and you will get it, The structure of the 
may be wrong so bare with me!
Any trouble? Smack me an Email tyson_burgess_37@hotmail.com
Enjoy!

  Intro

----------------------------------------------------|
  --------------------------------6-9-6-----5-8-5---|
  ----------9-6---5-8-5-4-7-4-----------------------|
  1-4-3-1-0-----0-------------0-0-------0-0---------|


  -------------6-8-9-----R----------------------------------|
  -------5-7-8-----------E----------------------------------|
  -5-7-8-----------------S----------------------------------|
  -----------------------T---------0~------0-----0~--0~-0-0-|

  Verse

  -----------------------------------------------------------|
  -----------------------------------------------------------|
  ------5-8-4------5----8-----6------5-8-4------12---11--8~--|
  ---0--------0-0-----0----0-------0---------00----0---0-----|


Breakdown

 --------------------------------------------------------|
 --------------------------------------------------------|
 --------------------------------------------------------|
 -00--00--0000--00---00--0000--00--000-00-0--------------|

  Verse

  -----------------------------------------------------------|
  -----------------------------------------------------------|
  ------5-8-4------5----8-----6------5-8-4------12---11--8~--|
  ---0--------0-0-----0----0-------0---------00----0---0-----|

Second Breakdown
Just figure out the opens by yourself.

 --------------------------------------------------------------|
 --------------------------------------------------------------|
 --------------------------------------------------------------|
 -1--4---5--1-1-1---1-1-1-------Zeros go here-----3-1-0-4-3-1--|

Third Breakdown(close your eyes etc,)

 ------------------------------------------------------------|
 ------------------------------------------------------------|
 ------5-----------------------------5-----------------------|
 -0320-----0320--032---065-32---0320----0320--032-065--32----|


Sweep part

 ---------------------------------------T---T-----------|
 --------------------------------6~~----I---w-----------|
 ---------------------------------------M---O-----------|
 -0~~~~-Let-ring-then----6~~~~----------E---------------|

Blast beattt

 --------------------------------------------------------|
 --------------------------------------------------------|
 ----55555555555---1212121212121212-1111111111111--------|
 --------------------------------------------------------|
End Of blast beat.
 ------------------|
 ------10-9--------|
 -------------11~--|
 -0-12------0------|

Drum Beat part.

 ------------------------------------------------------|
 -----------------------6------------------------------|
 ----------5-8-4----5-8-------5-8-4--------------------|
 -0~~--~00-------00--------00---------3-1-0-4-3-1------|

slower variation
 -------------------------|
 -------------------------|
 ---------------5---------|
 -0320------032-----------|x However many times then go back into the intro then verse

            
            
Suggest correction
Creating personal tab
Creating personal tab
You can edit any tab online and save it as your Personal.

You can edit, replace or remove any tab part or add personal notes – all changes will be seen only by you.

Personal tabs can be accessed anytime from any device, even offline.
Learn more »
Give kudos to tab author, rate the tab!
1 2 3 4 5
comments
print report bad tab
guest
You may want to rate the tab now too:
select rating
Wanna post a correction for this tab? Suggest correction