Oops, an error
Loading. Please wait.

Re They Have No Reflections tab

version 1
version 1

Whole song

Interactive

5,120 views 1 this week
10 commentsread comments
1 2 3 4 5
x 7
add to favorites
×
Save as Personal and add changes to this tab that will be seen only by you. Learn more ›
×
You can save this tab as Personal to edit and correct it or add notes. All changes will be seen only by you. Learn more »
launch autoscroll
font size
0
reset
how to read this tab
guitar tuner
edit
Autoscroll
slow
fast
+/-
esc
set tempo
stop
i this is right, it's kind of hard to hear all of the parts, but for the most part
i'm pretty sure it's right...if you have any corrections please either send them
to me or fix them yourselves, thanks....have fun!!!!!

Bring Me The Horizon
RE: They Have No Reflections (drop c)

Intro

---------16-16-------------16-16-----------16-16-----------16-16----------------|
---------20-20-------------20-20-----------20-20-----------20-20----------------|
--------------------------------------------------------------------------------|
--------------------------------------------------------------------------------|
-0-0-0-------------0-0-0------------0000------------0-0-0-----------------------|
-0-0-0-------------0-0-0------------0000------------0-0-0-----------------------|
.#.#.#................#.#.#...............####..............#.#.#

-----------16--16--16--16----------------------------------------------------|
-----------20--20--20--20----------------------------------------------------|
-----------------------------------------------------------------------------|
-----------------------------------------------------------------------------|
-0-0-0-----------------------------------------------------------------------|
-0-0-0-----------------------------------------------------------------------|
.#.#.#

"I've been dragging the lake..."
-------------------------------------------------------------------|
-------------------------------------------------------------------|
---(8p0 7p0 8p0 11p0 10p0 8p0)-------------------------------------|
-------------------------------------------------------------------|
-------------------------------------------------------------------|
-------------------------------------------------------------------|

---------------------------------------------------------------------|
---------------------------------------------------------------------|
-----2h3p2--------------------2h3p2----------------------------------| x2
--------------------5------------------------5---2~------------------|
--0------------1---------0--------------1----------------------------|
--0----------------------0-------------------------------------------|

"I dont know what they said..."
---------------------------------------------------------------------------|
---------------------------------------------------------------------------|
---------------------------------------------------------------------------| x2
-------7*-5*-3*-7*-5*-3*-5*---------8*-10*-7*--------7*-8*-5*--------------|
--5------------------------------------------------------------------------|
-------------------------------------8---------------7---------------------|

"Left me for dead!" (the deep scream part)
-----------------------------------------------------------------------------|
-----------------------------------------------------------------------------|
-----------------------------------------------------------------------------| x4
--------------7*-5*-3*-5*------------8*-10*-7*-------7*-8*-5*----------------|
-0-0-0-0---------------------------------------------------------------------|
-0-0-0-0--------------------------8----------------7-------------------------|
.#.#.#.#
-----------------------------------------------------------------------|
-----------------------------------------------------------------------|
-----------------------------------------------------------------------|
-----------------------------------------------------------------------|
-0-0-0-0-0-0-0-0-0-0-0-0-0-0-0-0-0-------------------------------------|
-0-0-0-0-0-0-0-0-0-0-0-0-0-0-0-0-0-------------------------------------|
.#########################
-----------------------------------------------------------------------|
-----------------------------------------------------------------------|
-----------------------------------------------------------------------|
-----------------------------------------------------------------------|
-0-0-0--0---0---0-0-0---0---0-0-0-0------------------------------------|
-0-0-0--0---0---0-0-0---0---0-0-0-0------------------------------------|
.#.#.#..#....#....#.#.#....#....#.#.#.#
----------------------------------------------------------------|
----------------------------------------------------------------|
----------------------------------------------------------------|
----------------------------------------------------------------|
--0-3-2-0-3-2---------------------------------------------------|
--0-3-2-0-3-2---------------------------------------------------|
..#.#.#.#.#.#
----------------------------------------------------------------------|
----------------------------------------------------------------------|
----------------------------------------------------------------------|
--------7*-5*-3*-7*-5*-3*-5*------------------------------------------|
---5*-----------------------------------------------------------------|
----------------------------------------------------------------------|

--------------------------------------------------------------------|
------------------------- 10*-8*-6*-8*-6*-5*-6*-5*------------------|
---------------- 9*-7*----------------------------------------------|
--7*-5*-3*-7*-5*----------------------------------------------------|
--------------------------------------------------------------------|
--------------------------------------------------------------------|

----------------------------------------------------------------|
----------------------------------------------------------------|
----------------------------------------------------------------| x3
----------------------------------------------------------------|
-0-5-3-2-1~-----------------------------------------------------|
-0-5-3-2-1~-----------------------------------------------------|
.#.#.#.#

"Nail the casket one more time..."
-----------------------------------------------------------------------------|
------------14---------------------14-/-16-----------------------------------|
------------17---------------------17-/-19-----------------------------------| x8
-----------------------------------------------------------------------------|
-0-1-0-0---------0-1-0-1-0-0-------------------------------------------------|
-0-1-0-0---------0-1-0-1-0-0-------------------------------------------------|
.#.#.#.#...........#.#.#.#.#.#

------------------------------------------------------------------------------|
------------------------------------------------------------------------------|
------------------------------------------------------------------------------| x4
------------------------------------------------------------------------------|
-0-3-2-1-0~-------------------------------------------------------------------|
-0-3-2-1-0~-------------------------------------------------------------------|
.#.#.#.#

"Twist the knife...."
-----------------------------------------------------------------------------|
-------------[8]-\----------------[8]-\-------------[8]-\--------------------| x4
-------------[7]-\----------------[7]-\-------------[7]-\--------------------|
-----------------------------------------------------------------------------|
-0-3-2-0-------------0-3-2-0-----------0-0-----------------------------------|
-0-3-2-0-------------0-3-2-0-----------0-0-----------------------------------|
.#.#.#.#................#.#.#.#.............#.#

----------------------------------------------------------------------|
----------------------------------------------------------------------|
-8-7------------------------------------------------------------------|
-8-7------------------------8-7---5h7p5-------------------------------|
-6-5-----------------5-6---------------------7p5----------------------|
-------0-0-000-0-0----------------------------------------------------|
........#.#.###.#.#
^ continued
--------------------------------------------------------------------------|
--------------------------------------------------------------------------| x6
-8-7----------------------------------------------------------------------|
-8-7----------------------------------------------------------------------|
-6-5------------------5h6p5h6p5h6-/-7h8p7h8p7h8---------------------------|
--------0-0-000-0-0-------------------------------------------------------|
.........#.#.###.#.#

"Do not change the subject..."
--------------------------------------------------------------------------|
--------------------------------------------------------------------------|
--------------------------------------------------------------------------| x2
--------------------------------------------------------------------------|
-000-0-0-000--------------5h6p5h6p5h6-/-7h8p7h8p7h8-----------------------|
-000-0-0-000--------------------------------------------------------------|
.###.#.#.###
-----------------------------------------------------------------------------|
-----------------------------------------------------------------------------|
-----------------------------------------------------------------------------|
------5*-3*-2*-3*-2*---------5*-7*-8*-------7*-8*-5*-------------------------|
--5--------------------------------------------------------------------------|
--------------------------5---------------7----------------------------------|

-----------------------------------------------------------------------------|
-----------------------------------------------------------------------------|
-----------------------------------------------------------------------------|
-----------------------------------------------------------------------------| x7
-0--3--0--5--3--2------------------------------------------------------------|
-0--3--0--5--3--2------------------------------------------------------------|


---------------------------------------------------------------------------|
---------------------------------------------------------------------------|
---------------------------------------------------------------------------|
--7~~----7h8-7-5---(x4)--------8-7-5-7-5-2---------------------------------|
---------------------------------------------------------------------------|
---------------------------------------------------------------------------|

"I hate all my friends.."
-----------------------------------------------------------------------------|
-----------------------------------------------------------------------------|
------------------------------------------------------------------------ x10-|
--------------------1\0-------0----------------------------------------------|
-0-1-3-000----3---------2-------[2]~~------0---1--(1)------------------------|
-0-1-3-000---------------------------------0---1--(1)------------------------|
.#.#.#.###.........................................#


LEGEND
#= palm mute
/= slide up
\= slide down
[]=pinch harmonic
*= tremolo pick
()=ghost note
P=pull-off
H= hammer-on
~= vibrato


bringmethehorizon.co.uk
Suggest correction
Creating personal tab
Creating personal tab
You can edit any tab online and save it as your Personal.

You can edit, replace or remove any tab part or add personal notes – all changes will be seen only by you.

Personal tabs can be accessed anytime from any device, even offline.
Learn more »
comments
print report bad tab
10 comments total. Showing first comments.
0 reply
iloveaiden 30 May 16, 2006 09:20 AM

hey this is rly gd i didnt think any1 wood of actualli tabbed any of bmth songs...do u fink u cood do ani of their otha songs?

0 reply
Farmer Frances 40 Jun 12, 2006 08:58 PM

Yeah, this is a good tab. This is completely out of the blue, but could you by any chance tab any Elysia?

0 reply
esskater 10 Jun 20, 2006 03:21 AM

this is ace lol :)

guest
You may want to rate the tab now too:
select rating
Wanna post a correction for this tab? Suggest correction