Oops, an error
Loading. Please wait.

Run tab

version 1
version 1

Whole song

2,939 views 24 this week
no commentswrite comment
1 2 3 4 5
x 6
add to favorites
×
Save as Personal and add changes to this tab that will be seen only by you. Learn more ›
×
You can save this tab as Personal to edit and correct it or add notes. All changes will be seen only by you. Learn more »
launch autoscroll
font size
0
reset
how to read this tab
guitar tuner
edit
Autoscroll
slow
fast
+/-
esc
set tempo
stop
Bring Me The Horizon
Run
That's The Spirit

love this song omg and the rest of the album isnt too bad either.

im not really sure what tuning bmth plays with, 
but ive heard Drop B so this is the tuning imma tab. enjuy



Intro (optional: becauseeee i like making guitar parts for sounds that arent even originally played on guitar)
C#-|------------------------------------------------------------------|
G#-|-------6p3-------------8p3---8/10------11p10-------13--13--11p10--|
E--|------------------------------------------------------------------|
B--|------------------------------------------------------------------|
F#-|------------------------------------------------------------------|
B--|------------------------------------------------------------------| x2
     1   2   3   4   1   2   3   4   1   2   3   4   1   2   3   4    





Verse 1
heh
part played in second half of the verses (optional played here also)
not completely sure if this is right.. THEY DONT MAKE IT LOUD ENOUGH XCCC lol
C#-|----------------------------------|
G#-|-6-6-6-6-8-6-6-8-10-6-6-6-5-5-5-5-|
E--|----------------------------------|
B--|----------------------------------|
F#-|----------------------------------|
B--|----------------------------------| x7
     . . . . . . . . . . . . . . . . .
     1       2       3        4  





Chorus chords
C#-|------------------------------------------------------------------|
G#-|------------------------------------------------------------------|
E--|------------------------------------------------------------------|
B--|-0---------------8---------------5---------------8----------------|
F#-|-0---------------8---------------5---------------8----------------|
B--|-0---------------8---------------5---------------8----------------|
     1   2   3   4   1   2   3   4   1   2   3   4   1   2   3   4    

C#-|------------------------------------------------------------------|
G#-|------------------------------------------------------------------|
E--|------------------------------------------------------------------|
B--|-0-----------14--10----------3---5---------------8----------------|
F#-|-0-----------14--10----------3---5---------------8----------------|
B--|-0-----------14--10----------3---5---------------8----------------|
     1   2   3   4   1   2   3   4   1   2   3   4   1   2   3   4    





Pre verse (optional again)
C#-|------------------------------------------------------------------|
G#-|-------6p3-------------8p3---8/10------11p10-------13--13--11p10--|
E--|------------------------------------------------------------------|
B--|------------------------------------------------------------------|
F#-|------------------------------------------------------------------|
B--|------------------------------------------------------------------| x2
     1   2   3   4   1   2   3   4   1   2   3   4   1   2   3   4    





Verse 2 ("uh is this optional too, Edward?" durrrrrrrrrr)
C#-|------------------------------------------------------------------|
G#-|-------6p3-------------8p3---8/10------11p10-------13--13--11p10--|
E--|------------------------------------------------------------------|
B--|------------------------------------------------------------------|
F#-|------------------------------------------------------------------|
B--|------------------------------------------------------------------| x2
     1   2   3   4   1   2   3   4   1   2   3   4   1   2   3   4    

part played in second half of the verses (optional played here also)
still not sure sure..
C#-|----------------------------------|
G#-|-6-6-6-6-8-6-6-8-10-6-6-6-5-5-5-5-|
E--|----------------------------------|
B--|----------------------------------|
F#-|----------------------------------|
B--|----------------------------------| x7
     . . . . . . . . . . . . . . . . .
     1       2       3        4 





Chorus chords
C#-|------------------------------------------------------------------|
G#-|------------------------------------------------------------------|
E--|------------------------------------------------------------------|
B--|-0---------------8---------------5---------------8----------------|
F#-|-0---------------8---------------5---------------8----------------|
B--|-0---------------8---------------5---------------8----------------|
     1   2   3   4   1   2   3   4   1   2   3   4   1   2   3   4    

C#-|------------------------------------------------------------------|
G#-|------------------------------------------------------------------|
E--|------------------------------------------------------------------|
B--|-0-----------14--10----------3---5-----------------------7--------|
F#-|-0-----------14--10----------3---5-----------------------7--------|
B--|-0-----------14--10----------3---5-----------------------7--------|
     1   2   3   4   1   2   3   4   1   2   3   4   1   2   3   4    





Bridge
C#-|-----------------------------------------------------------------|
G#-|-----------------------------------------------------------------|
E--|-----------------------------------------------------------------|
B--|-----------------------------------------------------------------|
F#-|-----------------------------------------------------------------|
B--|-8-8-8-8-8-8-8-8-8-8-8-8-8-8-8-8-8-8-8-8-8-8-8-8-3-3-3-3-3-3-3-3-|---|
     . . . . . . . . . . . . . . . . . . . . . . . . . . . . . . . .     | 
     1       2       3       4       1       2       3       4           |
C#-|-----------------------------------------------------------------|   |
G#-|-----------------------------------------------------------------|   |
E--|-----------------------------------------------------------------|   |
B--|-----------------------------------------------------------------|   |
F#-|-----------------------------------------------------------------|   |
B--|-5-5-5-5-5-5-5-5-5-5-5-5-5-5-5-5-5-5-5-5-5-5-5-5-5-5-5-5-5-5-5-5-|   |
     . . . . . . . . . . . . . . . . . . . . . . . . . . . . . . . .     | 2x
     1       2       3       4       1       2       3       4           |
C#-|-----------------------------------------------------------------|   |
G#-|-----------------------------------------------------------------|   |
E--|-----------------------------------------------------------------|   |
B--|-----------------------------------------------------------------|   |
F#-|-----------------------------------------------------------------|   |
B--|-8-8-8-8-8-8-8-8-8-8-8-8-8-8-8-8-10101010101010103-3-3-3-3-3-3-3-|   |
     . . . . . . . . . . . . . . . . . . . . . . . . . . . . . . . .     |
     1       2       3       4       1       2       3       4           |
C#-|-----------------------------------------------------------------|---|
G#-|-----------------------------------------------------------------|
E--|-----------------------------------------------------------------|
B--|-----------------------------------------------------------------|
F#-|-----------------------------------------------------------------|
B--|-5-5-5-5-5-5-5-5-5-5-5-5-5-5-5-5-5-5-5-5-5-5-5-5(7-7-7-7-7-7-7-7)| 
     . . . . . . . . . . . . . . . . . . . . . . . . . . . . . . . .
                                                    (5-5-5-5-5-5-5-5-) 
                           use these notes instead second time through
     1       2       3       4       1       2       3       4  





Chorus:
heh
in the first half of the last chorus, there isnt any guitar..
                                                BUT PIANOOOOO
C#-|-------------17----11-10-------------11----17-----------------------------------------------|
G#-|-------------------------------------------------15-----------------------------------------|
E--|--------------------------------------------------------------------------------------------|
B--|--------------------------------------------------------------------------------------------|
F#-|--------------------------------------------------------------------------------------------|
B--|--------------------------------------------------------------------------------------------| 
     1     2     3     4     1     2     3     4     1     2     3     4     1     2     3     4

chorus chords
C#-|------------------------------------------------------------------|
G#-|------------------------------------------------------------------|
E--|------------------------------------------------------------------|
B--|-0---------------8---------------5---------------8----------------|
F#-|-0---------------8---------------5---------------8----------------|
B--|-0---------------8---------------5---------------8----------------|---|
     1   2   3   4   1   2   3   4   1   2   3   4   1   2   3   4        |
                                                                          | x2
C#-|------------------------------------------------------------------|---|
G#-|------------------------------------------------------------------|
E--|------------------------------------------------------------------|
B--|-0-----------14--10----------3---5---------------8----------------|
F#-|-0-----------14--10----------3---5---------------8----------------|
B--|-0-----------14--10----------3---5---------------8----------------|
     1   2   3   4   1   2   3   4   1   2   3   4   1   2   3   4   




hey guess what c:
ANOTHER OPTIONAL CAN FIT IN HERE. 

lol nah dont forget to rate and comment

            
            
Suggest correction
Creating personal tab
Creating personal tab
You can edit any tab online and save it as your Personal.

You can edit, replace or remove any tab part or add personal notes – all changes will be seen only by you.

Personal tabs can be accessed anytime from any device, even offline.
Learn more »
comments
print report bad tab
guest
You may want to rate the tab now too:
select rating
Wanna post a correction for this tab? Suggest correction