Oops, an error
Loading. Please wait.

Seen It All Before Tab

version 1
version 1

Whole song

Interactive

8,710 views 15 this week
no commentswrite comment
1 2 3 4 5
accurate
x 5
add to favorites
launch autoscroll
font size
0
reset
how to read this tab
guitar tuner
Tab Pro tools
  • play this tab
  • loop segment
  • change instrument
  • show fretboard
  • metronome
×
Best way to learn
"Seen It All Before"
Autoscroll
slow
fast
+/-
esc
set tempo
stop
Difficulty
Tuning
intermediate
C# G# C# F# A# D#
Bring Me The Horizon - Seen It All Before

Tuning - Drop C#

Intro
(Lead)

-9----9----10--7--5-4--5----7--9----12-----9--7-|
-10---10---12--9--7-5--7----9--10---14-----10-9-|
------------------------------------------------|
------------------------------------------------|
------------------------------------------------|
------------------------------------------------|
Intro
(Rhythm)

------------------------|
--7----5----------------|
--6----6----7----9------|
--4----7----7----9------|
------------5----7------|
------------------------|

Main Riff/Chorus
(Lead)

--12----------12--------|
-----14----------14-----|
--------9-11--------11--|
------------------------| Repeat as many times necessary
------------------------|
------------------------|

Main Riff/Chorus
(Rhythm)

--------------------------------------------------------------------------|
--------------------------------------------------------------------------|
-------999999999-------999-977-766------999999999-------131313-444-141414-|
-------xxxxxxxxx-------xxx-xxx-xxx------xxxxxxxxx-------xxxxxx-xxx-xxxxxx-|
-------777777777-------777-755-544------777777777-------111111-222-121212-|
--000------------4444--------------000------------222---------------------|

Verse
(Lead)

---------------------------|
---------------------------|
--11----11-14-9--9-11-7-6--|
--11----11-11-11-1111-7-7--| x2
---------------------------|
---------------------------|

Verse
(Rhythm)

-----
--5--
---6-
----- Repeat as many times necessary
-----
-----

Chorus
(Lead)

--12----------12--------|
-----14----------14-----|
--------9-11--------11--|
------------------------| Repeat as many times necessary
------------------------|
------------------------|

Chorus
(Rhythm)

-------------------------------------------------------------------------|
-------------------------------------------------------------------------|
------999999999-------999-977-766------999999999-------131313-444-141414-|
------xxxxxxxxx-------xxx-xxx-xxx------xxxxxxxxx-------xxxxxx-xxx-xxxxxx-| x2
------777777777-------777-755-544------777777777-------111111-222-121212-|
-000------------4444--------------000------------222---------------------|

Breakdown thingy
(Lead)

--------------------------------|
--14-15-14-12-12-15-1515-141414-|
--------------------------------|
--------------------------------| Repeat as many times necessary
--------------------------------|
--------------------------------|

Breakdown thingy
(Rhythm)

------------------------|
------------------------|
------------------------|
---4-4-4-44--4-4--------| x4
---4-4-4-44--4-4--------|
---4-4-4-44--4-4--------|

Quiet Part

--9-
-10-
---- x4
----
----
----

Build Up
(Lead)

--------------------------------|
--14-15-14-12-12-15-1515-141414-|
--------------------------------|
--------------------------------| Repeat as many times necessary
--------------------------------|
--------------------------------|

Build Up
(Rhythm)

---------------------------------------|
---------------------------------------|
---------------------------------------|
--0----0----2----2----0----0----2----2-|
--0----0----2----2----0----0----2----2-|
--0----0----2----2----0----0----2----2-|

Build Up
(Additional)

--9-
-10-
---- Repeat as many times necessary
----
----
----


Chorus
(Lead)

--12----------12--------|
-----14----------14-----|
--------9-11--------11--|
------------------------| Repeat as many times necessary
------------------------|
------------------------|

Chorus
(Rhythm)

-------------------------------------------------------------------------|
-------------------------------------------------------------------------|
------999999999-------999-977-766------999999999-------131313-444-141414-|
------xxxxxxxxx-------xxx-xxx-xxx------xxxxxxxxx-------xxxxxx-xxx-xxxxxx-| x2
------777777777-------777-755-544------777777777-------111111-222-121212-|
-000------------4444--------------000------------222---------------------|

Calm Part
(Lead)

----------------------------------------|
----------------------------------------|
--6(x16)-7(x9)-5(x7)-7(x9)-6(x7)-2(x16)-|
----------------------------------------|
----------------------------------------|
----------------------------------------|

Calm Part
(Rhythm)

------------------------------------|
------------------------------------|
------------------------------------|
--4------2------9------0------------|
--4(x25)-2(x7)--9(x16)-0(x16)-------|
--4------2------9------0------------|

Heavy Part
(Lead)

--------------------------------|
--14-15-14-12-12-15-1515-141414-|
--------------------------------|
--------------------------------| Repeat as many times necessary
--------------------------------|
--------------------------------|

Heavy Part
(Rhythm)

------------------------------------|
------------------------------------|
------------------------------------|
--4------2------9------0------------| x2
--4(x25)-2(x7)--9(x16)-0(x16)-------|
--4------2------9------0------------|

Heavy Part
(Additional)

------------------------------------------|
------------------------------------------|
----------------7------6-----2------------|
--4------2------x(x9)--x(x7)-0(x16)-------| x2
--4(x25)-2(x7)--5------4-----0------------|
--4------2-------------------0------------|

Ending
(Lead)

----------------------------------|
----------------------------------|
--6(x16)-7(x9)-5(x7)-7(x9)-6(x7)--|
----------------------------------|
----------------------------------|
----------------------------------|

Ending
(Rhythm)

------------------------------------|
------------------------------------|
------------------------------------|
--4------2------9------0------------|
--4(x25)-2(x7)--9(x16)-0------------|
--4------2------9------0------------|
comments
print report bad tab
I want to post or [tab]
guest
You may want to rate the tab now too:
select rating
Please do not post tabs as comments. Select "correction" instead!