Oops, an error
Loading. Please wait.

Shadow Moses Tab

version 1
version 1

Whole song

Interactive

154,147 views 558 this week
14 commentsread comments
1 2 3 4 5
accurate
x 46
add to favorites
launch autoscroll
font size
0
reset
how to read this tab
guitar tuner
Tab Pro tools
  • play this tab
  • loop segment
  • change instrument
  • show fretboard
  • metronome
×
Best way to learn
"Shadow Moses"
Autoscroll
slow
fast
+/-
esc
set tempo
stop
Contributor
Difficulty
Tuning
intermediate
A# F A# D# G C
Bring Me The Horizon - Shadow Moses

Tuning - Drop A#

This song's actually really simple to play compared to older songs

Update 11.2.14 Sorted out the Lead for the Chorus

Intro

-----------------------------------------|
-----------------------------------------|
-----------------------------------------|
--0000---888--5555----8888----555--777---| x2
--0000---888--5555----8888----555--777---|
--0000---888--5555----8888----555--777---|


---------------------------------|
---------------------------------|
---------------------------------|
---------------------------------|
---------------------------------|
--00-00-0-000000-00-00-0---------|

Pre Verse

---------------------------------------------------------------|
---------------------------------------------------------------|
---------------------------------------------------------------|
---------0-00-00--00000--0-00-00--1-0-3-0-00-00---0000--00-00--|
--00000--0-00-00--00000--0-00-00--1-0-3-0-00-00---0000--00-00--|
--00000--0-00-00--00000--0-00-00--1-0-3-0-00-00---0000--00-00--|

------------------------------------------------------------|
---------------------------------------------------------5*-|
---------------------------------------------------------5*-|
---------00-0-00--00000--00-00-00--1-0-1-3-1-0-4-3-0-1-0-5*-|
--00000--00-0-00--00000--00-00-00--1-0-1-3-1-0-4-3-0-1-0----|
--00000--00-0-00--00000--00-00-00--1-0-1-3-1-0-4-3-0-1-0----|

Verse

--------------------------------------------|
--------------------------------------------|
--------------------------------------------|
---0-0-0--0-1-0-4-0-1--0-0-0--0-1-0-4-3/13--|
---0-0-0--0-1-0-4-0-1--0-0-0--0-1-0-4-3/13--|
---0-0-0--0-1-0-4-0-1--0-0-0--0-1-0-4-3/13--|
                                               x2
----------------------------------------------|
----------------------------------------------|
----------------------------------------------|
--0-0-0--0-1-0-4-0-1--0-1-0-3-1-0-4-3-0-1-----|
--0-0-0--0-1-0-4-0-1--0-1-0-3-1-0-4-3-0-1-----|
--0-0-0--0-1-0-4-0-1--0-1-0-3-1-0-4-3-0-1-----|


Breakdown

-----------------------------------------------------------------|
------------------------------------------------------------5*---|
------------------------------------------------------------5*---|
----000--00-00-00------000-00-00-00-----000-00-00--1-1-1--4-5*-4-|
-5*-000--00-00-00--5*--000-00-00-00-5*--000-00-00--1-1-1--4----4-|
----000--00-00-00------000-00-00-00-----000-00-00--1-1-1--4----4-|

------------------------------------------------------------------|
------------------------------------------------------------------|
------------------------------------------------------------------|
----000--00-00-00------000-00-00-00-----000-00-00-00--------------|
-5*-000--00-00-00--5*--000-00-00-00-5*--000-00-00-00--------------|
----000--00-00-00------000-00-00-00-----000-00-00-00--------------|

Pre Chorus

--------0------------0----------|
------3---3--------3---3--------|
----3-------3----2-------2------|
--------------------------------|
--1-----------0-----------------|
--------------------------------|


Chorus

Rhythm

-----------------------------------------------|
-----------------------------------------------|
-----------------------------------------------|
--0000-888-555--8888---------------------------| x4
--0000-888-555--8888--55555555--77777777-------|
--0000-888-555--8888--55555555--77777777-------|

Lead

----------------------0-----------0---------------------------|
--------------------3---3-------3---3-------------------------|
------------------3-------3---3-------3-----------------------|
--0000-888-555------------------------------------------------| 
--0000-888-555--1-----------1-----------55555555--77777777----|
--0000-888-555--------------------------55555555--77777777----|

--------8-----------------------------------------|
----6-----6---------------10------------8---------|
--7---7-----7--x6-----10----10-------9----9-------|
--------------------8----8-----8---7---7----7-----| 
--------------------------------------------------|
--------------------------------------------------|

-------|
-------|
-------|
-00000-|
-00000-|
-00000-|


Breakdown 2

---------------------------------------------------------------|
---------------------------------------------------------------|
---------------------------------------------------------------|
--1-0-3-00-00-00----000-00-00--0-0-0-00-00-00--00000-00-00-00--|
--1-0-3-00-00-00----000-00-00--0-0-0-00-00-00--00000-00-00-00--|
--1-0-3-00-00-00----000-00-00--0-0-0-00-00-00--00000-00-00-00--|

-----------------------|
-----------------------|
-----------------------|
--1-0-1-3-1-0-4-3-0-1--|
--1-0-1-3-1-0-4-3-0-1--|
--1-0-1-3-1-0-4-3-0-1--|

--------------------------------------------|
--------------------------------------------|
--------------------------------------------|
---0-0-0--0-1-0-4-0-1--0-0-0--0-1-0-4-3/13--| x4
---0-0-0--0-1-0-4-0-1--0-0-0--0-1-0-4-3/13--|
---0-0-0--0-1-0-4-0-1--0-0-0--0-1-0-4-3/13--|



Chorus

Rhythm

-----------------------------------------------|
-----------------------------------------------|
-----------------------------------------------|
--0000-888-555--8888---------------------------| x4
--0000-888-555--8888--55555555--77777777-------|
--0000-888-555--8888--55555555--77777777-------|

Lead

----------------------0-----------0---------------------------|
--------------------3---3-------3---3-------------------------|
------------------3-------3---3-------3-----------------------|
--0000-888-555------------------------------------------------| 
--0000-888-555--1-----------1-----------55555555--77777777----|
--0000-888-555--------------------------55555555--77777777----|

--------8-----------------------------------------|
----6-----6---------------10------------8---------|
--7---7-----7--x6-----10----10-------9----9-------|
--------------------8----8-----8---7---7----7-----| 
--------------------------------------------------|
--------------------------------------------------|

Ending

------------------------------------------------------------------|
------------------------------------------------------------5*----|
------------------------------------------------------------5*----|
----000--00-00-00------000-00-00-00-----000-00-00--1-1-1--4-5*-4--| x2
-5*-000--00-00-00--5*--000-00-00-00-5*--000-00-00--1-1-1--4----4--|
----000--00-00-00------000-00-00-00-----000-00-00--1-1-1--4----4--|


Thanks For Reading 
comments
print report bad tab
14 comments total. Showing first comments.
+4 reply
JasperWorsnop wrote on March 19 2013, 03:04 pm

Thank. You. <3

0 reply
Alexian3007 wrote on March 21 2013, 06:11 pm

No problem haha x

+1 reply
ke123nny wrote on April 21 2013, 06:16 am

brilliant tab! :D

I want to post or [tab]
guest
You may want to rate the tab now too:
select rating
Please do not post tabs as comments. Select "correction" instead!