Oops, an error
Loading. Please wait.

Shadow Moses Tab

version 1
version 1

Whole song

Interactive

162,691 views 369 this week
14 commentsread comments
1 2 3 4 5
accurate
x 48
add to favorites
launch autoscroll
font size
0
reset
how to read this tab
guitar tuner
Autoscroll
slow
fast
+/-
esc
set tempo
stop
Help us to improve Ultimate-Guitar.com Take our survey!
×
Author
Difficulty
Tuning
Alexian3007 1,206
intermediate
A# F A# D# G C
Bring Me The Horizon - Shadow Moses

Tuning - Drop A#

This song's actually really simple to play compared to older songs

Update 11.2.14 Sorted out the Lead for the Chorus

[Intro]

C |-----------------------------------------------------------|
G |-----------------------------------------------------------|
D#|-----------------------------------------------------------|
A#|--0-0-0-0---8-8-8--5-5-5-5----8-8-8-8----5-5-5--7-7-7------| x2
F |--0-0-0-0---8-8-8--5-5-5-5----8-8-8-8----5-5-5--7-7-7------|
A#|--0-0-0-0---8-8-8--5-5-5-5----8-8-8-8----5-5-5--7-7-7------|


C |--------------------------------------------------|
G |--------------------------------------------------|
D#|--------------------------------------------------|
A#|--------------------------------------------------|
F |--------------------------------------------------|
A#|--0-0--0-0--0--0-0-0-0-0-0--0-0--0-0--0-----------|


[Pre Verse]

C |---------------------------------------------------------------------------------------|
G |---------------------------------------------------------------------------------------|
D#|---------------------------------------------------------------------------------------|
A#|--------------0--0-0--0-0--0-0-0-0-0--0-0-0--0-0--1-0-3-0-0-0-0-0---0-0-0-0--0-0--0-0--|
F |--0-0-0-0-0---0--0-0--0-0--0-0-0-0-0--0-0-0--0-0--1-0-3-0-0-0-0-0---0-0-0-0--0-0--0-0--|
A#|--0-0-0-0-0---0--0-0--0-0--0-0-0-0-0--0-0-0--0-0--1-0-3-0-0-0-0-0---0-0-0-0--0-0--0-0--|

C |-----------------------------------------------------------------------------|
G |--------------------------------------------------------------------------5*-|
D#|--------------------------------------------------------------------------5*-|
A#|-------------0-0--0--0-0--0-0-0-0-0--0-0--0-0--0-0--1-0-1-3-1-0-4-3-0-1-0-5*-|
F |--0-0-0-0-0--0-0--0--0-0--0-0-0-0-0--0-0--0-0--0-0--1-0-1-3-1-0-4-3-0-1-0----|
A#|--0-0-0-0-0--0-0--0--0-0--0-0-0-0-0--0-0--0-0--0-0--1-0-1-3-1-0-4-3-0-1-0----|


[Verse]

C |--------------------------------------------|
G |--------------------------------------------|
D#|--------------------------------------------|
A#|---0-0-0--0-1-0-4-0-1--0-0-0--0-1-0-4-3/13--|
F |---0-0-0--0-1-0-4-0-1--0-0-0--0-1-0-4-3/13--|
A#|---0-0-0--0-1-0-4-0-1--0-0-0--0-1-0-4-3/13--|
                                               x2

C |----------------------------------------------|
G |----------------------------------------------|
D#|----------------------------------------------|
A#|--0-0-0--0-1-0-4-0-1--0-1-0-3-1-0-4-3-0-1-----|
F |--0-0-0--0-1-0-4-0-1--0-1-0-3-1-0-4-3-0-1-----|
A#|--0-0-0--0-1-0-4-0-1--0-1-0-3-1-0-4-3-0-1-----|


[Breakdown]

C |-------------------------------------------------------------------------------|
G |--------------------------------------------------------------------------5*---|
D#|--------------------------------------------------------------------------5*---|
A#|----0-0-0--0-0-0-0-0-0------0-0-0-0-0-0-0-0-0-----0-0-0-0-0-0-0--1-1-1--4-5*-4-|
F |-5*-0-0-0--0-0-0-0-0-0--5*--0-0-0-0-0-0-0-0-0-5*--0-0-0-0-0-0-0--1-1-1--4----4-|
A#|----0-0-0--0-0-0-0-0-0------0-0-0-0-0-0-0-0-0-----0-0-0-0-0-0-0--1-1-1--4----4-|

C |-------------------------------------------------------------------------------|
G |-------------------------------------------------------------------------------|
D#|-------------------------------------------------------------------------------|
A#|----0-0-0--0-0-0-0-0-0------0-0-0-0-0-0-0-0-0-----0-0-0-0-0-0-0-0-0------------|
F |-5*-0-0-0--0-0-0-0-0-0--5*--0-0-0-0-0-0-0-0-0-5*--0-0-0-0-0-0-0-0-0------------|
A#|----0-0-0--0-0-0-0-0-0------0-0-0-0-0-0-0-0-0-----0-0-0-0-0-0-0-0-0------------|


[Pre Chorus]

C |--------0------------0----------|
G |------3---3--------3---3--------|
D#|----3-------3----2-------2------|
A#|--------------------------------|
F |--1-----------0-----------------|
A#|--------------------------------|


[Chorus]

Rhythm
C |-------------------------------------------------------------------------|
G |-------------------------------------------------------------------------|
D#|-------------------------------------------------------------------------|
A#|--0-0-0-0-8-8-8-5-5-5--8-8-8-8-------------------------------------------| x4
F |--0-0-0-0-8-8-8-5-5-5--8-8-8-8--5-5-5-5-5-5-5-5--7-7-7-7-7-7-7-7---------|
A#|--0-0-0-0-8-8-8-5-5-5--8-8-8-8--5-5-5-5-5-5-5-5--7-7-7-7-7-7-7-7---------|

Lead
C |-----------------------------0-----------0-------------------------------------------|
G |---------------------------3---3-------3---3-----------------------------------------|
D#|-------------------------3-------3---3-------3---------------------------------------|
A#|--0-0-0-0--8-8-8--555----------------------------------------------------------------|
F |--0-0-0-0--8-8-8--555--1-----------1-----------5-5-5-5-5-5-5-5--7-7-7-7-7-7-7-7------|
A#|--0-0-0-0--8-8-8--555--------------------------5-5-5-5-5-5-5-5--7-7-7-7-7-7-7-7------|

C |--------8-----------------------------------------|
G |----6-----6---------------10------------8---------|
D#|--7---7-----7--x6-----10----10-------9----9-------|
A#|--------------------8----8-----8---7---7----7-----|
F |--------------------------------------------------|
A#|--------------------------------------------------|

C |-------------|
G |-------------|
D#|-------------|
A#|-0-0-0-0-0---|
F |-0-0-0-0-0---|
A#|-0-0-0-0-0---|


[Breakdown 2]

C |-------------------------------------------------------------------------------------|
G |-------------------------------------------------------------------------------------|
D#|-------------------------------------------------------------------------------------|
A#|--1-0-3-0-0-0-0-0-0----0-0-0-0-0-0-0--0-0-0-0-0-0-0-0-0--0-0-0-0-0--0-0--0-0--0-0----|
F |--1-0-3-0-0-0-0-0-0----0-0-0-0-0-0-0--0-0-0-0-0-0-0-0-0--0-0-0-0-0--0-0--0-0--0-0----|
A#|--1-0-3-0-0-0-0-0-0----0-0-0-0-0-0-0--0-0-0-0-0-0-0-0-0--0-0-0-0-0--0-0--0-0--0-0----|

C |-----------------------|
G |-----------------------|
D#|-----------------------|
A#|--1-0-1-3-1-0-4-3-0-1--|
F |--1-0-1-3-1-0-4-3-0-1--|
A#|--1-0-1-3-1-0-4-3-0-1--|

C |--------------------------------------------|
G |--------------------------------------------|
D#|--------------------------------------------|
A#|---0-0-0--0-1-0-4-0-1--0-0-0--0-1-0-4-3/13--| x4
F |---0-0-0--0-1-0-4-0-1--0-0-0--0-1-0-4-3/13--|
A#|---0-0-0--0-1-0-4-0-1--0-0-0--0-1-0-4-3/13--|


[Chorus]

Rhythm
C |---------------------------------------------------------------------------|
G |---------------------------------------------------------------------------|
D#|---------------------------------------------------------------------------|
A#|--0-0-0-0--8-8-8--5-5-5--8-8-8-8-------------------------------------------| x4
F |--0-0-0-0--8-8-8--5-5-5--8-8-8-8--5-5-5-5-5-5-5-5--7-7-7-7-7-7-7-7---------|
A#|--0-0-0-0--8-8-8--5-5-5--8-8-8-8--5-5-5-5-5-5-5-5--7-7-7-7-7-7-7-7---------|

Lead
C |-----------------------------0-----------0-------------------------------------------|
G |---------------------------3---3-------3---3-----------------------------------------|
D#|-------------------------3-------3---3-------3---------------------------------------|
A#|--0-0-0-0-8-8-8-5-5-5----------------------------------------------------------------|
F |--0-0-0-0-8-8-8-5-5-5--1-----------1-----------5-5-5-5-5-5-5-5--7-7-7-7-7-7-7-7------|
A#|--0-0-0-0-8-8-8-5-5-5--------------------------5-5-5-5-5-5-5-5--7-7-7-7-7-7-7-7------|

C |--------8-----------------------------------------|
G |----6-----6---------------10------------8---------|
D#|--7---7-----7--x6-----10----10-------9----9-------|
A#|--------------------8----8-----8---7---7----7-----|
F |--------------------------------------------------|
A#|--------------------------------------------------|


[Ending]

C |--------------------------------------------------------------------------------|
G |--------------------------------------------------------------------------5*----|
D#|--------------------------------------------------------------------------5*----|
A#|----0-0-0--0-0-0-0-0-0------0-0-0-0-0-0-0-0-0-----0-0-0-0-0-0-0--1-1-1--4-5*-4--| x2
F |-5*-0-0-0--0-0-0-0-0-0--5*--0-0-0-0-0-0-0-0-0-5*--0-0-0-0-0-0-0--1-1-1--4----4--|
A#|----0-0-0--0-0-0-0-0-0------0-0-0-0-0-0-0-0-0-----0-0-0-0-0-0-0--1-1-1--4----4--|


Thanks For Reading
Suggest correction
What's this?
You can suggest a correction to this tab. Community and Mods will review your correction and vote to approve or reject it.
comments
print report bad tab
14 comments total. Showing first comments.
+4 reply
JasperWorsnop 44 wrote on March 19 2013, 03:04 pm

Thank. You. <3

0 reply
Alexian3007 1,206 wrote on March 21 2013, 06:11 pm

No problem haha x

+1 reply
ke123nny 21 wrote on April 21 2013, 06:16 am

brilliant tab! :D

guest
You may want to rate the tab now too:
select rating
Please do not post tabs as comments. Select "correction" instead!