Oops, an error
Loading. Please wait.

Sleepwalking Tab

version 1
version 1

Whole song

Interactive

Video

181,847 views 525 this week
17 commentsread comments
1 2 3 4 5
x 58
add to favorites
launch autoscroll
font size
0
reset
how to read this tab
guitar tuner
Autoscroll
slow
fast
+/-
esc
set tempo
stop
Help us to improve Ultimate-Guitar.com Take our survey!
×
Author
Difficulty
Tuning
novice
D A D G B E
Piano Part For Guitar
[0:00] - [0:13]

E|-10--8-10-----------------------13------13-12-13-|
B|----------10--10-11-10--11--10-----10-8----------|
G|-------------------------------------------------|
D|-------------------------------------------------| [2x]
A|-------------------------------------------------|
D|-------------------------------------------------|

[0:13] - [0:26]

E|-10--8-----------------13----12-13---------------|
B|--------11-10---11--10---------------------------|
G|---------------------------12--------------------|
D|-------------------------------------------------| [2x]
A|-------------------------------------------------|
D|-------------------------------------------------|

[0:13] - [0:26]

E|-----------------------------------------------|
B|-----------------------------------------------|
G|-----------------------------------------------|
D|-8-88-88-8888--5555555--0-00-00-0000--3333333--| [2x]
A|-8-88-88-8888--5555555--0-00-00-0000--3333333--|
D|-8-88-88-8888--5555555--0-00-00-0000--3333333--|


[0:39] - [0:50]

E|----------------------------------------------|
B|----------------------------------------------|
G|----------------------------------------------|
D|---8-88-88--555---0-00-00--333----------------|  [2x]
A|---8-88-88--555---0-00-00--333----------------|
D|---8-88-88--555---0-00-00--333----------------|


[0:51]

E|-----------------------------------------------|
B|-----------------------------------------------|
G|-----------------------------------------------|
D|-8-88-88-8888--5555555--0-00-00-0000--3333333--| [4x]
A|-8-88-88-8888--5555555--0-00-00-0000--3333333--|
D|-8-88-88-8888--5555555--0-00-00-0000--3333333--|


E|-10--8-----------------13----12-13---------------|
B|--------11-10---11--10---------------------------|
G|---------------------------12--------------------|
D|-------------------------------------------------| [2x]
A|-------------------------------------------------|
D|-------------------------------------------------|

[1:18] - [1:30]

These part is preety easy. It's just "0-0-0-0-0"
E|------------------------------------------------------------------------|
B|------------------------------------------------------------------------|
G|------------------------------------------------------------------------|
D|------------------------------------------------------------------------| 
A|------------------------------------------------------------------------|
D|-0-000-0-0-0-000-0-0-0--00-0-0-0-0-0-0--00-0-000-0-0-0--00-0-00-0-0-----|
     ...   .   ...   .    ..   .   .      ..   ...   .    ..   .. 

[1:18] - [1:30]

E|-10-8-6-8---5--8--13------10-8-6-8---5----10--12-13----|
B|-------------------------------------------------------|
G|-------------------------------------------------------|
D|-------------------------------------------------------| Then Violin Playing
A|-------------------------------------------------------|
D|-------------------------------------------------------|

[1:43] - [2:07]

E|-----------------------------------------------|
B|-----------------------------------------------|
G|-----------------------------------------------|
D|-8-88-88-8888--5555555--0-00-00-0000--3333333--| [3x]
A|-8-88-88-8888--5555555--0-00-00-0000--3333333--|
D|-8-88-88-8888--5555555--0-00-00-0000--3333333--|

E|-10--8-----------------13----12-13-------------|
B|--------11-10---11--10-------------------------|
G|---------------------------12------------------|
D|-----------------------------------------------| [2x]
A|-----------------------------------------------|
D|-----------------------------------------------|

E|-----------------------------------------------|
B|-----------------------------------------------|
G|-----------------------------------------------|
D|-8-88-88-8888--5555555--0-00-00-0000--1111111--| 
A|-8-88-88-8888--5555555--0-00-00-0000--1111111--|
D|-8-88-88-8888--5555555--0-00-00-0000--1111111--|


[2:08] - [2:22]

E|-------------------------------------------------------|
B|-------------------------------------------------------|
G|---------------7-----7-------------------7-------------|
D|---------------x-----x-------------------x-------------| [2x] 
A|---------------5-----5-------------1-----5---666-33333-|
D|-000-000-0-1-0---000---000-0-1-0-0---1-0---0-----------|

[2:23] - [2:46]

E|----------------------------------------10-----10-10-----10-10-----8/10-10---10-8-------|
B|--10b(bend slooowly)-----8h10-10----8h10-10---------------------------------------11-10-|
G|----------------------------------------------------------------------------------------|
D|----------------------------------------------------------------------------------------|
A|----------------------------------------------------------------------------------------|
D|----------------------------------------------------------------------------------------|

[2:47] - [2:30]
E|---------------------------------------------------------------|
B|-10-10-10-10-10-10-1010-8h10-10--10-10-10-10-1010101010101010--|
G|---------------------------------------------------------------|
D|---------------------------------------------------------------|
A|---------------------------------------------------------------|
D|---------------------------------------------------------------|

[3:00] - [3:26]

E|-----------------------------------------------|
B|-----------------------------------------------|
G|-----------------------------------------------|
D|-8-88-88-8888--5555555--0-00-00-0000--3333333--| [4x]
A|-8-88-88-8888--5555555--0-00-00-0000--3333333--|
D|-8-88-88-8888--5555555--0-00-00-0000--3333333--|

E|-10--8-----------------13----12-13-------------|
B|--------11-10---11--10-------------------------|
G|---------------------------12------------------|
D|-----------------------------------------------| [6x]
A|-----------------------------------------------|
D|-----------------------------------------------|

[3:27] - 

E|-------------------------------------------------|
B|-------------------------------------------------|
G|-------------------------------------------------|
D|-8-88-88-8888--5555555--0-00-00-0000--3333333----| 
A|-8-88-88-8888--5555555--0-00-00-0000--3333333----|
D|-8-88-88-8888--5555555--0-00-00-0000--3333333----|

E|-10--8-10-----------------------13------13-12-13-|
B|----------10--10-11-10--11--10-----10-8----------|
G|-------------------------------------------------|
D|-------------------------------------------------| [2x]
A|-------------------------------------------------|
D|-------------------------------------------------|

End.


************************************

| x  Dead note
| .  Palm Mute

************************************
Suggest correction
comments
print report bad tab
17 comments total. Showing first comments.
+5 reply
tylerdb73 49 Mar 05, 2013 01:50 AM

Not to bad there are a few mistakes here and there for the most part you have the basis of it. I will soon upload a more accurate version of the song once i find the time to tab it out.

+6 reply
Shipshape 123 Mar 06, 2013 04:37 AM

Nice, Im working on a GP tab too

0 reply
Chipih 10 Mar 20, 2013 06:10 PM

Drop D really ?

guest
You may want to rate the tab now too:
select rating
Wanna post a correction for this tab? Suggest correction