Oops, an error
Loading. Please wait.

Tell Slater Not To Wash His Dick tab

version 3
version 3

Whole song

Interactive

1,005 views 1 this week
no commentswrite comment
1 2 3 4 5
x 3
add to favorites
×
Save as Personal and add changes to this tab that will be seen only by you. Learn more ›
×
You can save this tab as Personal to edit and correct it or add notes. All changes will be seen only by you. Learn more »
launch autoscroll
font size
0
reset
how to read this tab
guitar tuner
edit
Autoscroll
slow
fast
+/-
esc
set tempo
stop
Bring me the horizon 
Tell slater not to wash his dick

H=harmonic
*-palm mute
^=hammer on \pull off

tabbed by andherembrace


check out my cover

https://www.facebook.com/
photo.php?v=487162531295082&set=vb.100000040195827&type=2&theater



b-f#-b-e-g#-c#



L 
---------------------------------------------------------------|
---H--------------H------------------------H-------------------|
---4.1-----------[4]-----------------------3.5-------~~~~------|
-----DEPRESS BAR----PULL UP--H----------------PULL UP----------|
-----------------------------4-DEPRESS BAR---------------------|
---------------------------------------------------------------|
R
------------------------------------------------------------------|
------------------------------------------------------------------|
---------------------------------------------------------------_--|
--^----------------------8--7---^-------------------------_---/ \-|
-585-----4-------4-------------585-----4--------4--------/ \-0-5-8|
-----000---0-000---0-000--0--0-----000----0-000---0-000-0-5-8-----|
     ***   * ***   * ***  *  *     ***    * ***   * *** 
L
----------------_____----------------------------------------------|
--/\-----^-----/     \-----/\--------^----------------------___----|
141518-14-15-141514\1214-111211--11-787--7----/\----/\-----/   \---|
-------------------------------13------10-10-78910-78910-1087------|
-------------------------------------------------------------1098--|
-------------------------------------------------------------------|
L CONT.
-----------------------|
-----------------------|
--/\-------------------|
-78910-----9/10--------|
-------10\9-----10\9---|
-----------------------|

R
------------------------------------------------------------------|
------------------------------------------------------------------|
---------------------------------------------------------------_--|
--^----------------------8--7---^-------------------------_---/ \-|
-585-----4-------4-------------585-----4--------4--------/ \-0-5-8|
-----000---0-000---0-000--0--0-----000----0-000---0-000-0-5-8-----|
     ***   * ***   * ***  *  *     ***    * ***   * ***      
L

L
---------------------------------------------------------------|
---------------------------------------------------------------|
---------------------------------------------------------------|
---------------------------------------------------------------|
-0-----------------0----------0----------0-----------0---0-----|
-0-|---------------0-|--------0-|--------0-|---------0-|-0-|---|

R
---------------------------------------------------------------|
---------------------------------------------------------------|
-------------------------^-------------------------------------|
--------------^---------8-7-6----------------------^-----------|
-------------5-8-4---------------------^-------^--058----------|
-000-000-000-------0-000------000-000-058-000-058--------------|
 *** *** ***       * ***      *** ***     ***


B
---------------------------------------------------------------|
---------------------------------------------------------------|
-------------------------^-----------------------------^-------|
--------------^---------8-7-6----------------------^--047-^----|
-------------5-8-4---------------------^-------^--058----047---|
-000-000-000-------0-000------000-000-058-000-058--------------|
 *** *** ***       * ***      *** ***     ***
---------------------------------------------------------------|
---------------------------------------------------------------|
-------------------------^-----------------------------^-------|
--------------^---------8-7-6----------------------^--047-^----|
-------------5-8-4---------------------^-------^--058----047---|
-000-000-000-------0-000------000-000-058-000-058--------------|
 *** *** ***       * ***      *** ***     ***
---------------------------------------------------------------|
---------------------------------------------------------------|
-------------------------^-----------------------------^-------|
--------------^---------8-7-6----------------------^--047-^----|
-------------5-8-4---------------------^-------^--058----047---|
-000-000-000-------0-000------000-000-058-000-058--------------|
 *** *** ***       * ***      *** ***     ***
---------------------------------------------------------------|
---------------------------------------------------------------|
-------------------------^-----------------------------^-------|
--------------^---------8-7-6----------------------^--047-^----|
-------------5-8-4---------------------^-------^--058----047---|
-000-000-000-------0-000------000-000-058-000-058--------------|
 *** *** ***       * ***      *** ***     ***


B
---------------------------------------------------------------------|
---------------------------------------------------------------------|
---------------------------------------------------------------------|
---------------------------------------------------------------------|
-5----------8--7---------10--8----------13--12-------------------/\--|
--0-000-000--0--7-777-777--7---8-888-888--8---11-111111-111111-111214|
  * *** ***  *  * *** ***  *   * *** ***  *    *  * * *  * * *  
---------------------------------------------------------------------|
---------------------------------------------------------------------|
---------------------------------------------------------------------|
---------------------------------------------------------------------|
-5----------8--7---------10--8----------13---131313121212101010888---|
--0-000-000--0--7-777-777--7---8-888-888---8-------------------------|
  * *** ***  *  * *** ***  *   * *** ***   *   

---------------------------------------------------------------|
---------------------------------------------------------------|
-------------------------^-----------------------------^-------|
--------------^---------8-7-6----------------------^--047-^----|
-------------5-8-4---------------------^-------^--058----047---|
-000-000-000-------0-000------000-000-058-000-058--------------|
 *** *** ***       * ***      *** ***     ***
---------------------------------------------------------------|
---------------------------------------------------------------|
-------------------------^-----------------------------^-------|
--------------^---------8-7-6----------------------^--047-^----|
-------------5-8-4---------------------^-------^--058----047---|
-000-000-000-------0-000------000-000-058-000-058--------------|
 *** *** ***       * ***      *** ***     ***


B
---------------------------------------------------------------------|
---------------------------------------------------------------------|
---------------------------------------------------------------------|
---------------------------------------------------------------------|
-5----------8--7---------10--8----------13--12-------------------/\--|
--0-000-000--0--7-777-777--7---8-888-888--8---11-111111-111111-111214|
 -* *** ***  *  * *** ***  *   * *** ***  *    *  * * *  * * *
L
-------------------------------------------------------------------|
-------------------------------------------------------------------|
-------------------------------------------------------------------|
---------------------------------------------121212101010888777----|
-5----------8--7---------10--8----------13-------------------------|
--0-000-000--0--7-777-777--7---8-888-888---8-----------------------|
  * *** ***  *  * *** ***  *   * *** *** - *
R
-------------------------------------------------------------------|
-------------------------------------------------------------------|
-------------------------------------------------------------------|
-------------------------------------------------------------------|
-5----------8--7---------10--8----------13---131313121212101010888-|
--0-000-000--0--7-777-777--7---8-888-888---8-----------------------|
  * *** ***  *  * *** ***  *   * *** ***  * 

L
---------------------------------------------------------------------|
---------------------------------------------------------------------|
---------------------------------------------------------------------|
------------7--5---------8---7-----------12-10-----------------------|
-8---------------------------------------------------------------/\--|
--0-000-000--0--7-777-777--7---8-888-888--8---11-111111-111111-111214|
  * *** ***  *  * *** ***  *   * *** ***  *    *  * * *  * * *
R
---------------------------------------------------------------------|
---------------------------------------------------------------------|
---------------------------------------------------------------------|
---------------------------------------------------------------------|
-5----------8--7---------10--8----------13--12-------------------/\--|
--0-000-000--0--7-777-777--7---8-888-888--8---11-111111-111111-111214|
  * *** ***  *  * *** ***  *   * *** ***  *    *  * * *  * * *
L
-----------------------------------------------------------------|
-----------------------------------------------------------------|
-----------------------------------------------------------------|
------------7--5---------8---7-----------12-121212101010888777---|
-8---------------------------------------------------------------|
--0-000-000--0--7-777-777--7---8-888-888---8---------------------|
  * *** ***  *  * *** ***  *   * *** ***   * 
R
---------------------------------------------------------------------|
---------------------------------------------------------------------|
---------------------------------------------------------------------|
---------------------------------------------------------------------|
-5----------8--7---------10--8----------13---131313121212101010888-0-|
--0-000-000--0--7-777-777--7---8-888-888---8-----------------------0-|
  * *** ***  *  * *** ***  *   * *** ***   *     



-------------------------------------------------------------------------|
-------------------------------------------------------------------------|
-------------------------------------------------------------------------|
-----------7-----------7-----------8-----------8-------------------------|
---5---7-------5---7-------5---7-------5---7-------5---7---8---5---7---8-|
-8---8---8---8---8---8---5---5---5---5---5---5---0---0---0---0---0---0---|
 *   *   *   *   *   *   *   *   *   *   *   *   *   *   *   *   *   *

-----------------------------------------------------------------------|
-----------------------------------------------------------------------|
-----------------------------------------------------------------------|
----------------------------------7-----------7-----------8-----------8|
---5---7---8---5---7---8---5---7------5---7-------5---7-------5---7----|
-0---0---0---0---0---0---8---8---8--8---8---8---5---5---5---5---5---5--|
 *   *   *   *   *   *   *   *   *  *   *   *   *   *   *   *   *   *
L
-------------------------------------------|
-------------------------------------------|
-------------------------------------------|
----------------^--8------------^----/\----|
-0-0-0-0-8-----7-8-----0-0-0-0-7810-81012--|
-0-0-0-0---0-0---------0-0-0-0-------------|
 * * * *   * *         * * * *
R
-------------------------------------------|
-------------------------------------------|
-------------------------------------------|
----------------^---------------^---^------|
-0-0-0-0-5-----4-5-8---0-0-0-0-457-578-----|
-0-0-0-0---0-0---------0-0-0-0-------------|
 * * * *   * *         * * * *
-----------------------------------------------------------------------|
-----------------------------------------------------------------------|
-----------------------------------------------------------------------|
----------7-----------7-----------8-----------8------------------------|
---5---7-----5---7-------5---7-------5---7-------5---7---8---5---7---8-|
-8---8---8--8---8---8--5---5---5---5---5---5---0---0---0---0---0---0---|
 *   *   *  *   *   *  *   *   *   *   *   *   *   *   *   *   *   *

-----------------------------------------------------------------------|
-----------------------------------------------------------------------|
-----------------------------------------------------------------------|
----------------------------------7-----------7-----------8-----------8|
---5---7---8---5---7---8---5---7------5---7-------5---7-------5---7----|
-0---0---0---0---0---0---8---8--8---8---8---8---5---5---5---5---5---5--|
 *   *   *   *   *   *   *   *   *  *   *   *   *   *   *   *   *   *

L
-------------------------------------------|
-------------------------------------------|
-------------------------------------------|
----------------^--8------------^----/\----|
-0-0-0-0-8-----7-8-----0-0-0-0-7810-81012--|
-0-0-0-0---0-0---------0-0-0-0-------------|
 * * * *   * *         * * * * 
R
-------------------------------------------|
-------------------------------------------|
-------------------------------------------|
----------------^---------------^---^------|
-0-0-0-0-5-----4-5-8---0-0-0-0-457-578-----|
-0-0-0-0---0-0---------0-0-0-0-------------|
 * * * *   * *         * * * *

L
--------------------------------------------------------|
--------------------------------------------------------|
--------------------------------------------------------|
---8----7--------8-----7--------5--3--------5---3-------|
------------10-------------10-----------7-----------7---|
-8----8----8---8----8----8----5---5---5---5---5---5-----|
 *    *    *   *    *    *    *   *   *   *   *   *
R
--------------------------------------------------------|
--------------------------------------------------------|
--------------------------------------------------------|
---12---10---8---12---10---8---8---7---5---8---7---5----|
--------------------------------------------------------|
-8----8----8---8----8----8---5---5---5---5---5---5------|
 *    *    *   *    *    *    *   *   *   *   *   *
L
-------------------------------------------|
-------------------------------------------|
-------------------------------------------|
----------------^--8------------^----/\----|
-0-0-0-0-8-----7-8-----0-0-0-0-7810-81012--|
-0-0-0-0---0-0---------0-0-0-0-------------|
 * * * *   * *         * * * * 
R
-------------------------------------------|
-------------------------------------------|
-------------------------------------------|
----------------^---------------^---^------|
-0-0-0-0-5-----4-5-8---0-0-0-0-457-578-----|
-0-0-0-0---0-0---------0-0-0-0-------------|
 * * * *   * *         * * * *
L
--------------------------------------------------------|
--------------------------------------------------------|
--------------------------------------------------------|
---8----7--------8-----7--------5--3--------5---3-------|
------------10-------------10-----------7-----------7---|
-8----8----8---8----8----8----5---5---5---5---5---5-----|
 *    *    *   *    *    *    *   *   *   *   *   *
R
--------------------------------------------------------|
--------------------------------------------------------|
--------------------------------------------------------|
---12---10---8---12---10---8---8---7---5---8---7---5----|
--------------------------------------------------------|
-8----8----8---8----8----8---5---5---5---5---5---5------|
 *    *    *   *    *    *    *   *   *   *   *   *
L
-------------------------------------------|
-------------------------------------------|
-------------------------------------------|
----------------^--8------------^----/\----|
-0-0-0-0-8-----7-8-----0-0-0-0-7810-81012--|
-0-0-0-0---0-0---------0-0-0-0-------------|
 * * * *   * *         * * * *
R
-------------------------------------------|
-------------------------------------------|
-------------------------------------------|
----------------^---------------^---^------|
-0-0-0-0-5-----4-5-8---0-0-0-0-457-578-----|
-0-0-0-0---0-0---------0-0-0-0-------------|
 * * * *   * *         * * * *
L
---------------------------|
---------------------------|
---------------------------|
---------------------------|
-8--------------5--------)-|
-8--------------5------10--|


R
-----13-17-13------)(-13\--|
---15--------15--15--------|
-14-----------14-----------|
---------------------------|
---------------------------|
---------------------------|

L
--------------------------------------------------------------|
--------------------------------------------------------------|
------------------------5-------------------------------------|
------------------------5-----------------------10\9-9-9-9\6-6|
----------------0-3-1-0-3-0-1-3-----------------10\9-9-9-9\6-6|
-000--00000000--0-3-1-0---0-1-3---0-0--00000000-10\9-9-9-9\6-6|
 ***  ********  * * * *   * * *   * *  ********
R
---------------------------------------------------------------|
---------------------------------------------------------------|
------------------------5--------------------------------------|
------------------------5-----------------------1211111111-8-8-|
-0--------------0-3-1-0-3-0-1-3-----------------10\9-9-9-9\6-6-|
-0--------------0-3-1-0---0-1-3---0-0--------------------------|
                * * * *   * * *   * *
L
----------------------------------------------------------------|
----------------------------------------------------------------|
-----------------------5----------------------------------------|
-----------------------5----------------------------------------|
---------------0-3-1-0-3-0-1-3------------------^----------PH--0|
-00--00000000--0-3-1-0---0-1-3---0-0--00000000-0-1-1-1-1/5-5---0|
 **  ********  * * * *   * * *   * *  ********                 *
R
----------------------------------------------------------------|
----------------------------------------------------------------|
-----------------------5----------------------------------------|
-----------------------5----------------------------------------|
--0------------0-3-1-0-3-0-1-3------------------^----------PH--0|
-00------------0-3-1-0---0-1-3---0-0--00000000-0-1-1-1-1/5-5---0|
 **  ********  * * * *   * * *   * *  ********                 * 
L
--------------------------------------------------------------|
--------------------------------------------------------------|
------------------------5-------------------------------------|
------------------------5-----------------------10\9-9-9-9\6-6|
----------------0-3-1-0-3-0-1-3-----------------10\9-9-9-9\6-6|
--00--00000000--0-3-1-0---0-1-3---0-0--00000000-10\9-9-9-9\6-6|
  **  ********  * * * *   * * *   * *  ********
R
---------------------------------------------------------------|
---------------------------------------------------------------|
------------------------5--------------------------------------|
------------------------5-----------------------1211111111-8-8-|
---------------0-3-1-0-3-0-1-3------------------10\9-9-9-9\6-6-|
--00--00000000-0-3-1-0---0-1-3---0-0---00000000----------------|
  **  ********  * * * *   * * *   * *  ********
L
----------------------------------------------------------------|
----------------------------------------------------------------|
-----------------------5----------------------------------------|
-----------------------5----------------------------------------|
---------------0-3-1-0-3-0-1-3------------------^----------PH---|
-00--00000000--0-3-1-0---0-1-3---0-0--00000000-0-1-1-1-1/5-5----|
 **  ********  * * * *   * * *   * *  ********
R
----------------------------------------------------------------|
----------------------------------------------------------------|
-----------------------5----------------------------------------|
-----------------------5----------------------------------------|
---------------0-3-1-0-3-0-1-3------------------^----------PH---|
-00--00000000--0-3-1-0---0-1-3---0-0--00000000-0-1-1-1-1/5-5----|
 **  ********  * * * *   * * *   * *  ********

L
--------------------------------------------------------------|
--------------------------------------------------------------|
------------------------5-------------------------------------|
------------------------5-----------------------10\9-9-9-9\6-6|
----------------0-3-1-0-3-0-1-3-----------------10\9-9-9-9\6-6|
--00--00000000--0-3-1-0---0-1-3---0-0--00000000-10\9-9-9-9\6-6|
  **  ********  * * * *   * * *   * *  ********
R
---------------------------------------------------------------|
---------------------------------------------------------------|
-----------------------5---------------------------------------|
-----------------------5-----------------------1211111111-8-8--|
---------------0-3-1-0-3-0-1-3------------------10\9-9-9-9\6-6-|
--00--00000000-0-3-1-0---0-1-3---0-0---00000000----------------|
  **  ******** * * * *   * * *   * *   ********
 
               SLOW
L
----------------------------------|
----------------------------------|
-----------------------5----------|
-----------------------5----------|
---------------0-3-1-0-3-0-1-3----|
-00--00000000--0-3-1-0---0-1-3----|
 **  ********  * * * *   * * * 
R
-----------------------------------|
-----------------------------------|
-----------------------------------|
-----------------------------------|
-------------------------0-1-3-----|
-00--00000000------------0-1-3-----|
 **  ********            * * *
L
--------------------------------------------------------------|
--------------------------------------------------------------|
------------------------5-----------------------1211111111-8-8|
------------------------5-----------------------10\9-9-9-9\6-6|
----------------0-3-1-0-3-0-1-3-----------------10\9-9-9-9\6-6|
--00--00000000--0-3-1-0---0-1-3---0-0--00000000-10\9-9-9-9\6-6|
  **  ******** * * * *   * * *   * *   ********
R
---------------------------------------------------------------|
---------------------------------------------------------------|
------------------------5--------------------------------------|
------------------------5-----------------------1211111111-8-8-|
---------------0-3-1-0-3-0-1-3------------------10\9-9-9-9\6-6-|
--00--00000000-0-3-1-0---0-1-3---0-0---00000000----------------|
  **  ******** * * * *   * * *   * *   ********
L
-----------------------------------------------------------------|
-----------------------------------------------------------------|
-----------------------5-----------------------------------------|
-----------------------5-----------------------------------------|
---------------0-3-1-0-3-0-1-3------------------^----------PH-0-0|
-00--00000000--0-3-1-0---0-1-3---0-0--00000000-0-1-1-1-1/5-5--0-0|
 **  ******** * * * *   * * *   * *   ********
R
-----------------------------------------------------------------|
-----------------------------------------------------------------|
-----------------------5-----------------------------------------|
-----------------------5-----------------------------------------|
---------------0-3-1-0-3-0-1-3------------------^----------PH-0-0|
-00--00000000--0-3-1-0---0-1-3---0-0--00000000-0-1-1-1-1/5-5--0-0|
 **  ******** * * * *   * * *   * *   ********

                                           ///   ///
///----------///-----------///--------------18---17-----///----|
-15-----------17-----------18---------///---------------15-----|
--------------------------------------15-----------------------|
---------------------------------------------------------------|
---------------------------------------------------------------|
---------------------------------------------------------------|



                                           ///   ///
///----------///-----------///--------------18---17-----///----|
-15-----------17-----------18---------///---------------15-----|
--------------------------------------15-----------------------|
---------------------------------------------------------------|
---------------------------------------------------------------|
---------------------------------------------------------------|

                                          
----------------------------------|
-15-----------17-----------18-----|
----------------------------------|
----------------------------------|
----------------------------------|
----------------------------------|
Suggest correction
Creating personal tab
Creating personal tab
You can edit any tab online and save it as your Personal.

You can edit, replace or remove any tab part or add personal notes – all changes will be seen only by you.

Personal tabs can be accessed anytime from any device, even offline.
Learn more »
Give kudos to tab author, rate the tab!
1 2 3 4 5
comments
print report bad tab
guest
You may want to rate the tab now too:
select rating
Wanna post a correction for this tab? Suggest correction