Oops, an error
Loading. Please wait.

The Comedown tab

version 2
version 2

Whole song

Interactive

6,627 views 1 this week
2 commentsread comments
1 2 3 4 5
1 last vote to show rating
add to favorites
×
Save as Personal and add changes to this tab that will be seen only by you. Learn more ›
×
You can save this tab as Personal to edit and correct it or add notes. All changes will be seen only by you. Learn more »
launch autoscroll
font size
0
reset
how to read this tab
guitar tuner
edit
Autoscroll
slow
fast
+/-
esc
set tempo
stop
Shit album good song :]]

tabbed by - me :D
tuning - Drop Bb[Drop c one step down]


                      -----[Lee]-----

Intro!

C |----------------------------------------------------|
G |----------------------------------------------------|
D#|----------------------------------------------------|
A#|----------------------------------------------------|
F |--13p12-0000-0000--13p12----------------------------|
A#|--------0000-0000--------0--101010-111111-121212----|

C |----------------------------------------------------|
G |----------------------------------------------------|
D#|----------------------------------------------------|
A#|----------------------------------------------------|
F |--13p12-0000-0000--13p12----------------------------|
A#|--------0000-0000--------0--101010-111111-121212----|

C |----------------------------------------------------|
G |----------------------------------------------------|
D#|----------------------------------------------------|
A#|----------------------------------------------------|
F |-----------------9Bend------------------------------|
A#|---0-8-0-12-0-0-------------------------------------|


C |-------------------------------------------------------|
G |-------------------------------------------------------|
D#|-------------------------------------------------------|
A#|--12p10--------------12p10-----------------------------|
F |---------0000-0000-------------------------------------|
A#|---------0000-0000----------0--101010-111111-121212----|

C |----------------------------------------------------------------------|
G |----------------------------------------------------------------------|
D#|----------------------------------------------------------------------|
A#|--12p10--------------------------------------------44444444-11111111--|
F |-----------------------------------13p12-----------44444444-11111111--|
A#|--------000000000--1111111444444----------000000---44444444-11111111--|


Chorus!

C |------------------------------------|
G |------------------------------------|
D#|--14~~-10~~-7~~-9~~-14~~10~-7~~-9~~-|
A#|--12~~--8~~-5~~-7~~-12~~8~~-5~~-7~~-|
F |--12~~--8~~-5~~-7~~-12~~8~~-5~~-7~~-|
A#|--12~~--8~~-5~~-7~~-12~~8~~-5~~-7~~-|

Intro again!

C |----------------------------------------------------|
G |----------------------------------------------------|
D#|----------------------------------------------------|
A#|----------------------------------------------------|
F |--13p12-0000-0000--13p12----------------------------|
A#|--------0000-0000--------0--101010-111111-121212----|

C |----------------------------------------------------|
G |----------------------------------------------------|
D#|----------------------------------------------------|
A#|----------------------------------------------------|
F |--13p12-0000-0000--13p12----------------------------|
A#|--------0000-0000--------0--101010-111111-121212----|

C |----------------------------------------------------|
G |----------------------------------------------------|
D#|----------------------------------------------------|
A#|----------------------------------------------------|
F |-----------------9Bend------------------------------|
A#|---0-8-0-12-0-0-------------------------------------|


C |-------------------------------------------------------|
G |-------------------------------------------------------|
D#|-------------------------------------------------------|
A#|--12p10--------------12p10-----------------------------|
F |---------0000-0000-------------------------------------|
A#|---------0000-0000----------0--101010-111111-121212----|

C |----------------------------------------------------------------------|
G |----------------------------------------------------------------------|
D#|----------------------------------------------------------------------|
A#|--12p10--------------------------------------------44444444-11111111--|
F |-----------------------------------13p12-----------44444444-11111111--|
A#|--------000000000--1111111444444----------000000---44444444-11111111--|


breakdown part one?

C |----------------------10-8-6-----------------|
G |-----------------------------9-7-5--2h3p0----|
D#|---------------------------------------------|
A#|--000-000------------------------------------| sucks, uh? sorry :P
F |--000-000------------------------------------|
A#|--000-000--0000-0000-------------------------|
PM   *** ***


C |-------------------------------|
G |-------------------------------|
D#|----141414141414141414141414---|
A#|----xxxxxxxxxxxxxxxxxxxxxxxx---|
F |----121212121212121212121212---|
A#|-------------------------------|

Intro

C |----------------------------------------------------|
G |----------------------------------------------------|
D#|----------------------------------------------------|
A#|----------------------------------------------------|
F |--13p12-0000-0000--13p12----------------------------|
A#|--------0000-0000--------0--101010-111111-121212----|

C |----------------------------------------------------|
G |----------------------------------------------------|
D#|----------------------------------------------------|
A#|----------------------------------------------------|
F |--13p12-0000-0000--13p12----------------------------|
A#|--------0000-0000--------0--101010-111111-121212----|

Breakdown, Woo :D

C |-------------------------------------------------------|
G |-------------------------------------------------------|
D#|-------------------------------------------------------|
A#|--00000-000--0-1-0-4-0-1-3---000000-000-0-1-0-4-0-1-3--|
F |--00000-000--0-1-0-4-0-1-3---000000-000-0-1-0-4-0-1-3--|
A#|--00000-000--0-1-0-4-0-1-3---000000-000-0-1-0-4-0-1-3--|
PM*  ***** ***                  ****** ***

C |-----------------------------------------------------|
G |-----------------------------------------------------|
D#|-----------------------------------------------------| work the timing
A#|---00000000------------------------------------------|    yourself ;]
F |---00000000------------------------------------------|
A#|---00000000------------------------------------------|

C |----------------------------------------------------|
G |----------------------------------------------------|
D#|----------------------------------------------------|
A#|--00-00-00-------------------0000-000-00--4-1-3-----|
F |--00-00-00-----6---9-8-6-8---0000-000-00--4-1-3-----|
A#|--00-00-00---0---0-----------0000-000-00--4-1-3-----|
PM*  ** ** **   *   *           **** *** **

C |----------------------------------------------------|
G |-----------------5^--------------666666666666666----|
D#|---------------------------------999999999999999----|
A#|--00---4-3-1--00-----4-3-1--00----------------------|
F |--00---4-3-1--00-----4-3-1--00----------------------|
A#|--00---4-3-1--00-----4-3-1--00----------------------|

C |------------------------------------------------------|
G |--------------666666666-666666666-6666666-22222222----|
D#|--------------999999999-777777777-6666666-33333333----|
A#|--4-3-1--000------------------------------------------|
F |--4-3-1--000------------------------------------------|
A#|--4-3-1--000------------------------------------------|

Im tired now hehe. post the rest tomorrow :]

            
            
Suggest correction
Creating personal tab
Creating personal tab
You can edit any tab online and save it as your Personal.

You can edit, replace or remove any tab part or add personal notes – all changes will be seen only by you.

Personal tabs can be accessed anytime from any device, even offline.
Learn more »
Give kudos to tab author, rate the tab!
1 2 3 4 5
comments
print report bad tab
2 comments total.
0 reply
xKnifekillerx 393 Aug 28, 2009 01:06 PM

this is my tab btw. if anyone looks, ima update it and clean it up tomorrow =]] . so no one rate or learn this yet hehe.

0 reply
rayman01234 10 Aug 31, 2010 06:25 AM

Such a sick tab so far. :P

guest
You may want to rate the tab now too:
select rating
Wanna post a correction for this tab? Suggest correction