Oops, an error
Loading. Please wait.

The Sadness Will Never End bass

version 1
version 1

Whole song

13,307 views 1 this week
1 commentread comment
1 2 3 4 5
x 4
add to favorites
×
Save as Personal and add changes to this tab that will be seen only by you. Learn more ›
×
You can save this tab as Personal to edit and correct it or add notes. All changes will be seen only by you. Learn more »
launch autoscroll
font size
0
reset
guitar tuner
edit
Autoscroll
slow
fast
+/-
esc
set tempo
stop
Okay, So this is my first tab, just got my 5 string and my band wanted me to learn this 
I noticed there weren't any bass tabs for this... I just figured it all out. I'm not 
if it's 100% correct, let me know what you think. Thanks ! :D

Bring Me The Horizon
The Sadness Will Never End
Drop A Tuning


                Intro
G|--------|-------------------------------------------------|
D|--------|-------------------------------------------------|
A|--------|-------------------------------------------------|
E|--------|-------------------------------------------------|
A|22222222|22222222-5555/10-10-10-77777-999-5555-[999]-[222]|   x2

G|-------------------------------------|
D|-------------------------------------|
A|-------------------------------------|
E|-------------------------------------|
A|2-2-2-2-5555/999-10-10-10-10-7777-999|    x2

G|---------------------------|
D|---------------------------|
A|---------------9~----------|
E|------------10~----------9~|
A|2-2-2-2--10~------9~--12~--|


      Verse
G|-----------------------------------|----------------------------------|
D|-----------------------------------|-First Ending---------------------|
A|-----------------------------------|----------------------------------|
E|88888888-66666666-33333333-44444444|----------------------------------|
A|-----------------------------------|77777777-10-10-10-10-10-10-10-10--|

G|--------------------------------|----------------------|
D|--------------------------------|----Second Ending-----|
A|--------------------------------|----------------------|
E|--------------------------------|----------------------|
A|77777777-12-12-12-12-12-12-12-12|2-2-2-2----2-2-2-2----|

     Chorus
G|-------------------------------------------------|
D|-------------------------------------------------|
A|-------------------------------------------------|
E|-------------------------------------------------|
A|22222222-5555/10-10-10-77777-999-5555-[999]-[222]|   x2

G|--------------------------------|
D|--------------------------------|
A|--------------------------------|
E|--------------------------------|
A|2-2-2-2-----2-2-2-2------2-2-2-2|


           Verse
G|-----------------------------------|-----------------------------------|
D|-----------------------------------|---First Ending--------------------|
A|-----------------------------------|-----------------------------------|
E|88888888-66666666-33333333-44444444|-----------------------------------|
A|-----------------------------------|77777777-10-10-10-10-10-10-10-10---|

G|-------------------------------|-----------------|
D|-------------------------------|-----------------|
A|-------------------------------|-----------------|
E|-------------------------------|-----------------|
A|7777777-12-12-12-12-12-12-12-12|2-2-2-2---2-2-2-2|


             Chorus 2
G|-----------------------------------------------------------|
D|-----------------------------------------------------------|
A|-----------------------------------------------------------|
E|88888-888-88-66666-666-66-3333333333333333-4444444444444444|
A|-----------------------------------------------------------|    x2

        Bridge
G|------------------------------------------|
D|------------------------------------------|
A|------------------------------------------|
E|4444444444444444 66666666-3333333333333333|
A|------------------------------------------|


           Chrous 3
G|-------------------------------------------------|
D|-------------------------------------------------|
A|-------------------------------------------------|
E|-------------------------------------------------|
A|22222222-5555/10-10-10-77777-999-5555-[999]-[222]|   x2

G|-------------------------------------|--|
D|-------------------------------------|--|
A|-------------------------------------|--|
E|-------------------------------------|--|
A|2-2-2-2-5555/999-10-10-10-10-7777-999|2~|


       Breakdown
G|------------------------------------------------|
D|------------------------------------------------|
A|------------------------------------------------|
E|8888888888888888----------------------------7777|
A|----------------10-10-10-10-10-10-10-10-7777----|

             Pause
G|--------------------------------|
D|--------------------------------|
A|--------------------------------|
E|----------------------------7777|
A|10-10-10-10-10-10-10-10-7777----|

G|------------------------------------------------|
D|------------------------------------------------|
A|------------------------------------------------|
E|8888888888888888----------------------------7777|
A|----------------10-10-10-10-10-10-10-10-7777----|


   Breakdown
G|-----------------------------------------------------------------------|
D|-----------------------------------------------------------------------|
A|-----------------------------------------------------------------------|
E|88--8888--88--8888-------------------------------------------------7777|
A|-------------------10-10--10-10-10-10--10-10-10-10-10-10-10-10-7777----|


      Solo
G|------------------------------------------------|
D|------------------------------------------------|
A|------------------------------------------------|
E|8888888888888888----------------------------7777|
A|----------------10-10-10-10-10-10-10-10-7777----|

   Outro
G|-----------------------------------------------------------------------|
D|-----------------------------------------------------------------------|
A|-----------------------------------------------------------------------|
E|88--8888--88--8888-------------------------------------------------7777|
A|-------------------10-10--10-10-10-10--10-10-10-10-10-10-10-10-7777----|

G|----|
D|----|
A|----|
E|8888|
A|----|

Brakets in the first line mean first and second endings.  Enjoy (=

            
            
Suggest correction
Creating personal tab
Creating personal tab
You can edit any tab online and save it as your Personal.

You can edit, replace or remove any tab part or add personal notes – all changes will be seen only by you.

Personal tabs can be accessed anytime from any device, even offline.
Learn more »
comments
print report bad tab
1 comment total.
0 reply
horizonaflame 430 Jan 31, 2011 10:15 AM

I think it sounds better in drop A# like the guitars are, so i think your just a half step off on everything so try it in drop A# and tell me what u think, either that or the guitar tab is off, which i think youre off because every song except for suicide season is in Drop A# but u check it out and tell me. -horizonaflame (Nick)

guest
You may want to rate the tab now too:
select rating
Wanna post a correction for this tab? Suggest correction