Oops, an error
Loading. Please wait.

The Sadness Will Never End tab

version 6
version 6
139 views 3 this week
no commentswrite comment
1 2 3 4 5
2 more votes to show rating
add to favorites
×
Save as Personal and add changes to this tab that will be seen only by you. Learn more ›
×
You can save this tab as Personal to edit and correct it or add notes. All changes will be seen only by you. Learn more »
launch autoscroll
font size
0
reset
how to read this tab
guitar tuner
edit
Autoscroll
slow
fast
+/-
esc
set tempo
stop
[The Sadness Will Never End]
[Suicide Season]
[Bring Me The Horizon]

Tuning: C F Bb Eb G C
Playthrough: https://www.youtube.com/watch?v=UWJCfDySV3g


[Riff 1, Guitar 1 & 2] - [00:37] - [00:40]
- ---------------------------------
- ---------------------------------
- -4-4-4-4-4-4-4-4-----------------
- -5-5-5-5-5-5-5-5-----------------
- -7-7-7-7-7-7-7-7-----------------
- ---------------------------------
-
- ---------------------------------
- ---------------------------------
- ---------------------------------
- -2-2-2-2-2-2-2-2-----------------
- -2-2-2-2-2-2-2-2-----------------
- -0-0-0-0-0-0-0-0-----------------


[Riff 2, Guitar 1 & 2] - [00:40] - [00:49]
- -----------------------------------------------------------------
- -----------------------------------------------------------------
- -4-4-4-4-4-4-4-4-------------------------------------------------
- -5-5-5-5-5-5-5-5-------------------------------------------------
- -7-7-7-7-7-7-7-7-------------------------------------------------
- -------------------3-3-3-3/8-8-8\--5-5-5-5/7-7-7\--3-3-3-3/7-7-0-
-
- -----------------------------------------------------------------
- -----------------------------------------------------------------
- -----------------------------------------------------------------
- -2-2-2-2-2-2-2-2-------------------------------------------------
- -2-2-2-2-2-2-2-2-------------------------------------------------
- -0-0-0-0-0-0-0-0---3-3-3-3/8-8-8\--5-5-5-5/7-7-7\--3-3-3-3/7-7-0-


- -----------------------------------------------------------------
- -----------------------------------------------------------------
- -4-4-4-4-4-4-4-4-------------------------------------------------
- -5-5-5-5-5-5-5-5-------------------------------------------------
- -7-7-7-7-7-7-7-7-------------------------------------------------
- -------------------3-3-3-3/8-8-8\--5-5-5-5/7-7-7\--3-3-3-00000---
PM                                                         ....
- -----------------------------------------------------------------
- -----------------------------------------------------------------
- -----------------------------------------------------------------
- -2-2-2-2-2-2-2-2-------------------------------------------------
- -2-2-2-2-2-2-2-2-------------------------------------------------
- -0-0-0-0-0-0-0-0---3-3-3-3/8-8-8\--5-5-5-5/7-7-7\--3-3-3-00000---
PM                                                         ....


[Riff 3] - [00:49] - [00:59] - [x2]
- -----------------------------------------------------------------
- -----------------------------------------------------------------
- -----------4-4-4-------------------------------------------------
- -2---2-----5-5-5---5-5-5-5-5-5---5---5-----9-9-9---7-7-7-7-7-7---
- -2---2-----7-7-7---2-2-2-2-2-2---7---7-----7-7-7---7-7-7-7-7-7---
- -0---0-------------3-3-3-3-3-3---8---8-----8-8-8---8-8-8-8-8-8---


[Riff 4, Guitar 1 & 2] - [00:59] - [01:06]
- -----------------------------------------------------------------
- -------------------[5]-----7br-----------------------------------
- ---------------------[5]---------4-------------------------------
- -2---2-----2---2-------[5]---------------9---------------4-------
- -2---2-----2---2----------------------7---------------5----------
- -0---0-----0---0-------------------8---------------7-------------
-
- -----------------------------------------------------------------
- -------------------[5]-------------------------------------------
- ---------------------[5]-----------------------------------------
- -2---2-----2---2-------[5]-4br-----------9---------------4-------
- -2---2-----2---2-----------------5----7---------------5----------
- -0---0-----0---0-------------------8---------------7-------------


[Riff 5] - [01:06] - [01:15]
- -----------------------------------------------------------------------------
- -----------------------------------------------------------------------------
- -4------2--------4------5----------------------------------------------------
- -5------4--------4------5--------9------9--------7---------------------------
- -7------5--------2------3--------7------7--------7------10---10-10-9---9-9---
- ----------------------------------------8--------8------7----7--7--7---7-7---

[Riff 6a] - [01:15] - [01:29]
- -----------------------------------------------------------------
- -----------------------------------------------------------------
- -4---4---4-4-4-4---2-2---2-2-2-2-4---4---4-4-4-4---5-5---5-5-5-5-
- -5---5---5-5-5-5---4-4---4-4-4-4-4---4---4-4-4-4---5-5---5-5-5-5-
- -7---7---7-7-7-7---5-5---5-5-5-5-2---2---2-2-2-2---3-3---3-3-3-3-
- -----------------------------------------------------------------

- -----------------------------------------------------------------------
- -----------------------------------------------------------------------
- -----------------------------------------------------------------------
- -----------------------------------------------------------------------
- -----------------------------------------------------------------------
- -5---5---5-5-5-5/--8-8-8-8-8-8\--5---5---5-5-5-5/--10-10-10-10-10-10\--

- -----------------------------------------------------------------
- -----------------------------------------------------------------
- -4---4---4-4-4-4---2-2---2-2-2-2-4---4---4-4-4-4---5-5---5-5-5-5-
- -5---5---5-5-5-5---4-4---4-4-4-4-4---4---4-4-4-4---5-5---5-5-5-5-
- -7---7---7-7-7-7---5-5---5-5-5-5-2---2---2-2-2-2---3-3---3-3-3-3-
- -----------------------------------------------------------------

[Riff 6b] - [01:15] - [01:29]
- -19-19-19----------------------------------------19-19-19----------------------------------------
- ----------20-20-20-19-19-19-------------------------------20-20-20-19-19-19----------------------
- ----------------------------19-19-19-19-19-19-19----------------------------19-19-19-19-19-19-19-
- -------------------------------------------------------------------------------------------------
- -------------------------------------------------------------------------------------------------
- -------------------------------------------------------------------------------------------------

- -------------------------------------------------------------------------------------------------
- ----------------------------------------------------------------------------19-19-19-19-19-19-19-
- -19-21-21-21-21-21-21-21-21-19-19-19-19-19-19-19-19-21-21-21-21-21-21-21-21----------------------
- -------------------------------------------------------------------------------------------------
- -------------------------------------------------------------------------------------------------
- -------------------------------------------------------------------------------------------------

- -19-19-19----------------------------------------19-19-19----------------------------------------
- ----------20-20-20-19-19-19-------------------------------20-20-20-19-19-19----------------------
- ----------------------------19-19-19-19-19-19-19----------------------------19-19-19-19-19-19-19-
- -------------------------------------------------------------------------------------------------
- -------------------------------------------------------------------------------------------------
- -------------------------------------------------------------------------------------------------


[Riff 7, Guitar 1 & 2] - [01:29] - [01:34]
- ----------------------------------------------------------------------
- ----------------------------------------------------------------------
- --------------------------------------------------/12-12-12-12-11-11\-
- -2---2-----2---2-----------------2---2-----2---2---x--x--x--x--x--x---
- -2---2-----2---2-----------------2---2-----2---2--/10-10-10-10-9--9-\-
- -0---0-----0---0--/8-8-8-8-8-8\--0---0-----0---0----------------------
-
- ----------------------------------------------------------------------
- ----------------------------------------------------------------------
- ----------------------------------------------------------------------
- -2---2-----2---2-----------------2---2-----2---2----------------------
- -2---2-----2---2-----------------2---2-----2---2--/10-10-10-10-9--9\--
- -0---0-----0---0-----------------0---0-----0---0--/8--8--8--8--8--8\--


[Riff 8, Guitar 1 & 2] - [01:34] - [01:43] - [x2]
- -----------------------------------------------------------------
- -----------------------------------------------------------------
- -4-4-4-4-4-4-4-4-------------------------------------------------
- -5-5-5-5-5-5-5-5-------------------------------------------------
- -7-7-7-7-7-7-7-7-------------------------------------------------
- -------------------3-3-3-3/8-8-8\--5-5-5-5/7-7-7\--3-3-3-3/7-7-0-
-
- -----------------------------------------------------------------
- -----------------------------------------------------------------
- -----------------------------------------------------------------
- -2-2-2-2-2-2-2-2-------------------------------------------------
- -2-2-2-2-2-2-2-2-------------------------------------------------
- -0-0-0-0-0-0-0-0---3-3-3-3/8-8-8\--5-5-5-5/7-7-7\--3-3-3-3/7-7-0-


[Riff 9] - [01:43] - [01:55]
- -----------------------------------------------------------------
- -----------------------------------------------------------------
- ------------------[5]--------------------------------------------
- -2---2-----2---2--[5]--------------------------------------------
- -2---2-----2---2-------------------------------------------------
- -0---0-----0---0-------------------------------------------------

- -----------------------------------------------------------------
- ------------------[5]--------------------------------------------
- ------------------[5]--------------------------------------------
- -2---2-----2---2-------------------------------------------------
- -2---2-----2---2-------------------------------------------------
- -0---0-----0---0-------------------------------------------------

- ---------------------------------
- ---------------------------------
- ---------------------------------
- -2---2-----2---2-----------------
- -2---2-----2---2-----------------
- -0---0-----0---0-----------------

[Riff 6a] - [01:55] - [02:09]

[Riff 10] - [01:55] - [02:09]
- -19--------------------------------------------22----------------
- ---------------------------------22------------------------------
- -----------------------------------------------------------------
- -----------------------------------------------------------------
- -----------------------------------------------------------------
- -----------------------------------------------------------------

- -----------------------------------------------------------------
- -20------------------------------19--------------22--------------
- -----------------------------------------------------------------
- -----------------------------------------------------------------
- -----------------------------------------------------------------
- -----------------------------------------------------------------

- -19--------------------------------------------22----------------
- ---------------------------------22------------------------------
- -----------------------------------------------------------------
- -----------------------------------------------------------------
- -----------------------------------------------------------------
- -----------------------------------------------------------------

[Riff 7, Guitar 1 & 2] - [02:09] - [02:14]

[Riff 11a] - [02:14] - [02:33] - [x2]
- -----------------------------------------------------------------
- -----------------------------------------------------------------
- -4-4-4-4-4-4-4-4---4-4-4-4-4-4-4-2-2-2-2-2-2-2-2---2-2-2-2-2-2-2-
- -5-5-5-5-5-5-5-5---5-5-5-5-5-5-5-4-4-4-4-4-4-4-4---4-4-4-4-4-4-4-
- -7-7-7-7-7-7-7-7---7-7-7-7-7-7-7-5-5-5-5-5-5-5-5---5-5-5-5-5-5-5-
- -----------------------------------------------------------------

- -----------------------------------------------------------------
- -----------------------------------------------------------------
- -------------4-------------------------------4-------------------
- -------5-------------------------------5-------------------------
- -2---------------------------2---3-------------------------------
- -----------------------------------------------------------------

[Riff 11b] - [02:14] - [02:33] - [x2]
- -19-19-19----------------------------------------19-19-19----------------------------------------
- ----------20-20-20-19-19-19-------------------------------20-20-20-19-19-19----------------------
- ----------------------------19-19-19-19-19-19-19----------------------------19-19-19-19-19-19-19-
- -------------------------------------------------------------------------------------------------
- -------------------------------------------------------------------------------------------------
- -------------------------------------------------------------------------------------------------

- -------------------------------------------------------------------------19-19-19-19-19-19-19-19-
- -------------------------------------------------20-20-20-20-20-20-20-20-------------------------
- -19-21-21-21-21-21-21-21-21-21-21-21-21-21-21-21-------------------------------------------------
- -------------------------------------------------------------------------------------------------
- -------------------------------------------------------------------------------------------------
- -------------------------------------------------------------------------------------------------

[Riff 12a] - [02:33] - [02:52] - [x2]
- -----------------------------------------------------------------
- -----------------------------------------------------------------
- -5-5-5-5-5-5-5-5-5-5-5-5-5-5-5-5-5-5-5-5-5-5-5-5-2-2-2-2-2-2-----
- -5-5-5-5-5-5-5-5-5-5-5-5-5-5-5-5-5-5-5-5-5-5-5-5-5-5-5-5-5-5-2-2-
- -3-3-3-3-3-3-3-3-3-3-3-3-3-3-3-3-3-3-3-3-3-3-3-3-3-3-3-3-3-3-2-2-
- -------------------------------------------------------------0-0-

- -----------------------------------------------------------------------
- -----------------------------------------------------------------------
- ---------------------------------------------------/12-12-12-12-11-11\-
- -2-2-2-2-2-2-2-2-2-2-2-2-2-2-2-2-2-2-2-2-2-2-2-2-2--x--x--x--x--x--x---
- -2-2-2-2-2-2-2-2-2-2-2-2-2-2-2-2-2-2-2-2-2-2-2-2-2-/10-10-10-10-9--9-\-
- -0-0-0-0-0-0-0-0-0-0-0-0-0-0-0-0-0-0-0-0-0-0-0-0-0---------------------

[Riff 12b] - [02:33] - [02:52] - [x2]
- -19-19-19-19-19-19-19-19-19-19-19-19-19-19-19-19-19-19-19-19-19-19-19-19-19br--------------------
- -------------------------------------------------------------------------------------------------
- -------------------------------------------------------------------------------------------------
- -------------------------------------------------------------------------------------------------
- -------------------------------------------------------------------------------------------------
- -------------------------------------------------------------------------------------------------

- -19-19-19-19-19-19-19-19-19-19-19-19-19-19-19-19-19-19-19----------------------------------------
- ----------------------------------------------------------22-22-22-20-20-22-22-22-20-20-20-19-19-
- -------------------------------------------------------------------------------------------------
- -------------------------------------------------------------------------------------------------
- -------------------------------------------------------------------------------------------------
- -------------------------------------------------------------------------------------------------

[Riff 13a] - [02:52] - [03:11] - [x2]
- ---------12---------------12-------------------12----------------------12----------
- ---------13---------------13-------------------13----------------------13----------
- -9-9-9-9----9-9-9-9-9-9-9----9-9-9-11-11-11-11----11-11-11-11-11-11-11----11-11-11-
- -----------------------------------------------------------------------------------
- -----------------------------------------------------------------------------------
- -----------------------------------------------------------------------------------
PM .......    .............    .................    ....................    ........

- -------------12----------------------12----------------------12----------------------12----------
- -------------13----------------------13----------------------13----------------------13----------
- -------------------------------------------------------------------------------------------------
- -12-12-12-12----12-12-12-12-12-12-12----12-12-12-10-10-10-10----10-10-10-10-10-10-10----10-10-10-
- -------------------------------------------------------------------------------------------------
- -------------------------------------------------------------------------------------------------
PM ...........    ....................    ....................    ....................    ........

[Riff 13b] - [02:52] - [03:11] - [x4]
- -------------------------------------------------------------------------------------------------
- -------------------------------------------------------------------------------------------------
- /12-12-12-12-12-12-12-12-12-12-12-12-12-12-12-12\11-11-11-11-11-11-11-11/17-17-17-17-17-17-17-17\
- -------------------------------------------------------------------------------------------------
- -------------------------------------------------------------------------------------------------
- -------------------------------------------------------------------------------------------------

[Riff 14] - [03:11] - [03:16]
- -----------------------------------------------------------------
- -----------------------------------------------------------------
- -4-4-4-4-4-4-4-4-------------------------------------------------
- -5-5-5-5-5-5-5-5-------------------------------------------------
- -7-7-7-7-7-7-7-7-------------------------------------------------
- -------------------3-3-3-3/8-8-8\--5-5-5-5/7-7-7\--3-3-3-3/7-7-0-

[Riff 8, Guitar 1 & 2] - [03:16] - [03:25] - [x2]
[Riff 3] - [03:25] - [03:35]

[Riff 15a] - [03:35] - [03:38]
- ---------------------------------
- ---------------------------------
- ---------------------------------
- -2-------------------------------
- -2-------------------------------
- -0-------------------------------


[Riff 15b, Guitar 1 & 2] - [03:35] - [03:37] - [x4]
- -----------------------------------------------------------------
- -8-------------------------------12--------------10------8-------
- -9-------------------------------9---------------9-------9-------
- -9-------------------------------10--------------10------10------
- -----------------------------------------------------------------
- -----------------------------------------------------------------
-
- -----------------------------------------------------------------
- -----------------------------------------------------------------
- -4-------------------------------4---------------4-------4-------
- -5-------------------------------5---------------5-------5-------
- -7-------------------------------3---------------5-------6-------
- -----------------------------------------------------------------

[Riff 15c] - [03:46] - [03:37] - [x2]
- ----------------------------------------------------------------------------------------
- ----------------------------------------------------------------------------------------
- ----------------------------------------------------------------------------------------
- ----------------------------------------------------------------------------------------
- ----------------------------------------------------------------------------------------
- -12-12-12-12-12-12-12-12-12-12-12-12-12-12-12-12\8-8-8-8-8-8-8-8\5-5-5-5/11-11-11-11/12-

[Riff 16] - [03:37] - [04:31] - [x3]
- ---------------------------------------------------------------------------------------
- ---------8---8----8-\----------8---8----8-----------8---8----8-\----------8---8----8---
- ---------11b-11hb-11\----------11b-11hb-11r---------11b-11hb-11\----------11b-11hb-11r-
- ---------------------------------------------------------------------------------------
- -----------------------2222222------------------------------------222-222--------------
- -12--0-----------------0000000--------------12--0-----------------000-000--------------
PM                       .......                                    .......

- ----------------------------------------------------------------------
- ---------8-8-8\----------8-8-8----------------------------------------
- ---------9-9-9\----------9-9-9----------------------------------------
- ----------------------------------------------------------------------
- -----------------2--2--2----------------------------------------------
- -8---0-----------0--0--0-------0-8-8-8-8-8-8-8\5-5-5-5/11-11-11-11/12-
PM                 .......

[Riff 15c] - [04:31] - [04:54] - [x2]

[Riff 17a] - [04:31] - [04:54] - [x4]
- -----------------------------------------------------------------
- -----------------------------------------------------------------
- -12-----------------------------\9--------------/17-------------\
- -----------------------------------------------------------------
- -----------------------------------------------------------------
- -----------------------------------------------------------------
AP ...............................................................

[Riff 17b] - [04:43] - [04:54]
- -------------------------19-------20-------22-------22----22b---22--20--19--20--19--------------
- -------------------19-------17-------19-------20------------------------------------------------
- -------16----17-------17------------------------------------------------------------20----------
- -16-------17----17------------------------------------------------------------------------------
- ----19------------------------------------------------------------------------------------------
- ------------------------------------------------------------------------------------------------

- ----24-22-24-20-24-19-24----24----24-------------------------------20p19p7--------------------------------
- -------------------------22----20----19------------------------------------20p19p17-----------------------
- -------------------------------------------21----20---------------------------------19p17p16--------------
- ---------------------------------------------------------------------------------------------19p17p16-----
- ------------------------------------------------------------------------------------------------------19--
- ----------------------------------------------------------------------------------------------------------

[Riff 16] - [04:54] - [05:20] - [x2.25]

[Symbols]

PM... Palm Mute notes with (...) under them
AP... Alternate Pick notes with (...) under them
h     Hammer On
p     Pull Off
[ ]   Harmonic
/     Slide Up
\     Slide Down
x     Dead Note
b     Bend
hb    Hold Bend
pb    Pre-Bend
r     Release Bend
(x )  Play Notes x amount of times
~     Let Ring
\\\   Pick Slide Down
///   Pick Slide Up
/ 3 \ Notes are triplets (3 notes in the space of two)
w\    Whammy Bar Down
w/    Whammy Bar Up
wh    Whammy Bar Hold
T     Right Hand Tap
L     Left Hand Tap

:)
Suggest correction
Creating personal tab
Creating personal tab
You can edit any tab online and save it as your Personal.

You can edit, replace or remove any tab part or add personal notes – all changes will be seen only by you.

Personal tabs can be accessed anytime from any device, even offline.
Learn more »
Give kudos to tab author, rate the tab!
1 2 3 4 5
comments
print report bad tab
guest
You may want to rate the tab now too:
select rating
Wanna post a correction for this tab? Suggest correction