Oops, an error
Loading. Please wait.
We have an official Throne tab made by UG professional guitarists. Check out the tab »
×
11,233 views 27 this week
4 commentsread comments
1 2 3 4 5
x 8
add to favorites
×
Save as Personal and add changes to this tab that will be seen only by you. Learn more ›
×
You can save this tab as Personal to edit and correct it or add notes. All changes will be seen only by you. Learn more »
launch autoscroll
font size
0
reset
guitar tuner
edit
Autoscroll
slow
fast
+/-
esc
set tempo
stop
-------------------------------------------------------------------------------
                             Throne - Bring Me the Horizon
-------------------------------------------------------------------------------
Tabbed by: Robert2511
E-mail: robertbarryhill@yahoo.co.uk
Bassist: Matt Kean
Tuning: Drop A#: A#FA#D#


[Intro] x2

D#|---------------------------------------------------------------------------|
A#|---------------------------------------------------------------------------|
F |---------------------------------------------------------------------------|
A#|-2-2-2-2-2-2-2-2-10-10-10-10-10-10-10-10-5-5-5-5-5-5-5-5-0-0-0-0-0-0-0-0---|


[Verse:] No Bass

[Pre-Chorus 1]

D#|---------------------------------------------------------------------------|
A#|---------------------------------------------------------------------------|
F |---------------------------------------------------------------------------|
A#|-2---10---10~----7--2---10---10--------------------------------------------|


[Chorus 1]

D#|---------------------------------------------------------------------------|
A#|---------------------------------------------------------------------------|
F |---------------------------------------------------------------------------|
A#|-2-2-2-2-2-2-2-2-10-10-10-10-10-10-10-10-5-5-5-5-5-5-5-5-0-0-0-0-0-0-0-0---|

D#|---------------------------------------------------------------------------|
A#|---------------------------------------------------------------------------|
F |---------------------------------------------------------------------------|
A#|-2-2-2-2-2-2-2-2-10-10-10-10-10-10-10-10-5-5-5-5-5-5-5-5-------------------|

[Verse:] No Bass

[Pre-Chorus 2]

D#|---------------------------------------------------------------------------|
A#|---------------------------------------------------------------------------|
F |---------------------------------------------------------------------------|
A#|-2---10---10~----7--2---10---10--------------------------------------------|

[Chorus 2]

D#|---------------------------------------------------------------------------| 
A#|---------------------------------------------------------------------------| x 3
F |---------------------------------------------------------------------------|
A#|-2-2-2-2-2-2-2-2-10-10-10-10-10-10-10-10-5-5-5-5-5-5-5-5-0-0-0-0-0-0-0-0---|

D#|--------------------------------------------------------------------------------------|
A#|--------------------------------------------------------------------------------------|
F |--------------------------------------------------------------------------------------|
A#|-2-2-2-2-2-2-2-2-10-10-10-10-10-10-10-10-5-5-5-5-5-5-5-5-0-0-0-0-0-0-0-0-0-0-0-0-0-0-0|

[Bridge:] No Bass

[Build Up]

D#|---------------------------------------------------------------------------|
A#|---------------------------------------------------------------------------|
F |---------------------------------------------------------------------------|
A#|-10---0---2~----10---0---7~------------------------------------------------|

[Last Chorus]

D#|---------------------------------------------------------------------------|
A#|---------------------------------------------------------------------------| x 2
F |---------------------------------------------------------------------------|
A#|-2-2-2-2-2-2-2-2-10-10-10-10-10-10-10-10-5-5-5-5-5-5-5-5-0-0-0-0-0-0-0-0---|

D#|---------------------------------------------------------------------------|
A#|---------------------------------------------------------------------------|
F |---------------------------------------------------------------------------|
A#|-2-------------10~--10-10-10-10-10-10-10-5-5-5-5-5-5-0~----0-0-0-0-0-0-0---|

D#|---------------------------------------------------------------------------|
A#|---------------------------------------------------------------------------|
F |---------------------------------------------------------------------------|
A#|-2-------2-2-2-10~--10-10-10-10-10-10-10-5-5-5-5-5-5-5-5-0-0-0-0-0-0-0-0---|


*****************************************************

| /  slide up
| \  slide down
| h  hammer-on
| p  pull-off
| ~  vibrato
| +  harmonic
| x  Mute note

*****************************************************

            
            
Suggest correction
Creating personal tab
Creating personal tab
You can edit any tab online and save it as your Personal.

You can edit, replace or remove any tab part or add personal notes – all changes will be seen only by you.

Personal tabs can be accessed anytime from any device, even offline.
Learn more »
comments
print report bad tab
4 comments total. Showing first comments.
0 reply
jeno7749 32 Apr 04, 2016 01:16 AM

why is this in Drop A# when the guitar is in drop C???
im not an amazing guitarist nor am i great with my music theory, but that doesnt make sense to me???

0 reply
Robert2511 321 Apr 04, 2016 04:36 AM

As far as I'm aware all instruments are in Drop A# for this song

0 reply
jeno7749 32 Apr 06, 2016 05:49 PM

i play Throne in drop C (through transposing) and the orignial tab i used is actually written for Drop D. weird

guest
You may want to rate the tab now too:
select rating
Wanna post a correction for this tab? Suggest correction