Oops, an error
Loading. Please wait.

Traitors Never Play Hangman Bass

version 1
version 1

Whole song

Interactive

2,778 views 1 this week
no commentswrite comment
1 2 3 4 5
x 3
add to favorites
×
Save as Personal and add changes to this tab that will be seen only by you. Learn more ›
×
You can save this tab as Personal to edit and correct it or add notes. All changes will be seen only by you. Learn more »
save as personal
new!
launch autoscroll
font size
0
reset
guitar tuner
Autoscroll
slow
fast
+/-
esc
set tempo
stop
Author
Difficulty
Tuning
novice
B F# B E
Artist - Bring Me The Horizon
Song - Traitors Never Play Hangman
Album - This Is What The Edge Of Your Seat Was Made For
Tabber - Satan Man
Tabbers Email - morbid_damnation666@hotmail.com
Tuning - BF#BE

E |-----------------|
B |-----------------|
F#|-----------------| x4
B |-0-0-0-0--0--0-0-|

Pause

E |-----------------|
B |-----------------|
F#|-----------------| x8
B |-0-0-0-0--0--0-0-|

E |-----------------------|
B |-----------------------|
F#|-----------------------| x4
B |-0-0-0--0-----0-0-0--0-|

E |----------------------------------|
B |----------------------------------|
F#|------------------------------7-8-|
B |-0-0-0--0-0-0--0-0-0--0-0-0-------|

E |---------------------------------------|
B |-----------------------------10----8---|
F#|--------------------------------10---8-|
B |-0-0-0--0-0-0--0-0-0--0-0-0------------|

E |----------------------------------|
B |----------------------------------|
F#|------------------------------7-8-|
B |-0-0-0--0-0-0--0-0-0--0-0-0-------|

E |---------------------------------------|
B |-----------------------------10----8---|
F#|--------------------------------10---8-|
B |-0-0-0--0-0-0--0-0-0--0-0-0------------|

E |--------|
B |--------|
F#|--------|
B |-8----5-|

E |--------------------------------------|
B |---------------------------------10---|
F#|---------------7-8------------------8-|
B |-0-0-0--0-0-0-------0-0-0--0-0-0------|

E |-------------------------------------------|
B |---------------------------------10--------|
F#|---------------7-8------------------8------|
B |-0-0-0--0-0-0-------0-0-0--0-0-0------8--5-|

E |--------------------------------------|
B |---------------------------------10---|
F#|---------------7-8------------------8-| x2
B |-0-0-0--0-0-0-------0-0-0--0-0-0------|

E |--------|
B |--------|
F#|--------|
B |-8----5-|

E |--------------|-----------|----------------------|
B |--------------|-----------|----------------------|
F#|--------------|-----------|----------------------|
B |-0-0-0-0-0-0--|-0-0-0-0-0-|--0-0-0-0-0---0-0-1-0-|

E |-------------|
B |-------------|
F#|-------------| x2
B |-0--0-0-0--0-|

Ending
E |------------------------------------|
B |------------------------------------|
F#|------------------------------------|
B |--0-0-0-0--0--0-0---0-0-0-0--0--0-0-|
Suggest correction
Give kudos to tab author, rate the tab!
1 2 3 4 5
comments
print report bad tab
guest
You may want to rate the tab now too:
select rating
Wanna post a correction for this tab? Suggest correction