Oops, an error
Loading. Please wait.

True Friends Tab

version 2
version 2

Whole song

Interactive

Video

40,002 views 219 this week
2 commentsread comments
1 2 3 4 5
x 30
add to favorites
launch autoscroll
font size
0
reset
how to read this tab
guitar tuner
×
Best way to learn
"True Friends"
Autoscroll
slow
fast
+/-
esc
set tempo
stop
Author
Difficulty
Tuning
intermediate
D A D G B E
BMTH - True Friends

Drop D


[Intro]

E|----------------------------------------------------------------------------------|
B|---6---5-----6---5-----6----5-----6----5-----6---5----6---5-------6---5----6---5--|
G|-7---7-----7---7------------------------------------------------7---7----7---7----|
D|---------------------8---8------8---8------5---5----5---5-------------------------|
A|----------------------------------------------------------------------------------|
D|----------------------------------------------------------------------------------|


[Pre Verse]

E|---------------------------------------------------------------------------|
B|---------------------------------------------------------------------------|
G|---------------------------------------------------------------------------|
D|---------------------------------------------------------------------------|
A|--0-0-0-0--------0-0-0-0-0-0------------8-8-8-8-7-8--8-8-8-8-8-8-7---7h8---|
D|--0-0-0-0-10h12--0-0-0-0-0-0-10h12 0-0--8-8-8-8---8--8-8-8-8-8-8---8-------|
                                                                             x2
E|-------------------------------------------------------------------------|
B|-------------------------------------------------------------------------|
G|-------------------------------------------------------------------------|
D|-------------------------------------------------------------------------|
A|--5-5-5-5-8-5--5-5-5-5-5-5-3-3-3-3--0-0-0-0-3h5-0--0-0-0-0-0-0-3-2-2-0---|
D|--5-5-5-5---5--5-5-5-5-5-5-3-3-3-3--0-0-0-0-----0--0-0-0-0-0-0-3-2-2-0---|


[Verse]

E|--------------------------------------------------|
B|--------------------------------------------------|
G|--------------------------------------------------|
D|--------------------------------------------------|
A|--------------------------------------------------|
D|--0(x12)--10(x4)--8(x12)--7(x4)--5(x16)--8(x16)---|

E|---------------------------------------------------------|
B|---------------------------------------------------------|
G|---------------------------------------------------------|
D|--0-------10------8-------7------5-------8-------10------|
A|--0(x12)--10(x4)--8(x12)--7(x4)--5(x16)--8(x12)--10(x4)--|
D|--0-------10------8-------7------5-------8-------10------|


[Pre Chorus]

E|----------------------------------------------------------------------------|
B|----------------------------------------------------------------------------|
G|----------------------------------------------------------------------------|
D|----------------------------------------------------------------------------| x2
A|-------------------------------------------------------------------8-8-8-8--|
D|--0-0-0-0-10h12--0-0-0-0-0-0-10h12-0-0--0-0-0-0-10h12--0-0-0-0-0-0-8-8-8-8--|


[Chorus]

E|---------------------------------------------------------------------------|
B|---------------------------------------------------------------------------|
G|---------------------------------------------------------------------------|
D|---------------------------------------------------------------------------|
A|--0-0-0-0--------0-0-0-0-0-0------------8-8-8-8-7-8--8-8-8-8-8-8-7---7h8---|
D|--0-0-0-0-10h12--0-0-0-0-0-0-10h12 0-0--8-8-8-8---8--8-8-8-8-8-8---8-------|
                                                                             x2
E|-------------------------------------------------------------------------|
B|-------------------------------------------------------------------------|
G|-------------------------------------------------------------------------|
D|-------------------------------------------------------------------------|
A|--5-5-5-5-8-5--5-5-5-5-5-5-3-3-3-3--0-0-0-0-3h5-0--0-0-0-0-0-0-3-2-2-0---|
D|--5-5-5-5---5--5-5-5-5-5-5-3-3-3-3--0-0-0-0-----0--0-0-0-0-0-0-3-2-2-0---|


[Verse 2]

E|-------------------------------------------------------|
B|-------------------------------------------------------|
G|-------------------------------------------------------|
D|-------------------------------------------------------|
A|-------------------------------------------------------|
D|--0(x12)--10(x4)--8(x12)--7(x4)--5(x16)--3(x8)--2(x8)--|

E|---------------------------------------------------------|
B|---------------------------------------------------------|
G|---------------------------------------------------------|
D|--0-------10------8-------7------5-------3-------2-------|
A|--0(x12)--10(x4)--8(x12)--7(x4)--5(x16)--3(x8)---2(x8)---|
D|--0-------10------8-------7------5-------3-------2-------|


[Pre Chorus]

E|----------------------------------------------------------------------------|
B|----------------------------------------------------------------------------|
G|----------------------------------------------------------------------------|
D|----------------------------------------------------------------------------| x2
A|-------------------------------------------------------------------8-8-8-8--|
D|--0-0-0-0-10h12--0-0-0-0-0-0-10h12-0-0--0-0-0-0-10h12--0-0-0-0-0-0-8-8-8-8--|


[Chorus]

E|---------------------------------------------------------------------------|
B|---------------------------------------------------------------------------|
G|---------------------------------------------------------------------------|
D|---------------------------------------------------------------------------|
A|--0-0-0-0--------0-0-0-0-0-0------------8-8-8-8-7-8--8-8-8-8-8-8-7---7h8---|
D|--0-0-0-0-10h12--0-0-0-0-0-0-10h12 0-0--8-8-8-8---8--8-8-8-8-8-8---8-------|
                                                                             x2
E|-------------------------------------------------------------------------|
B|-------------------------------------------------------------------------|
G|-------------------------------------------------------------------------|
D|-------------------------------------------------------------------------|
A|--5-5-5-5-8-5--5-5-5-5-5-5-3-3-3-3--0-0-0-0-3h5-0--0-0-0-0-0-0-3-2-2-0---|
D|--5-5-5-5---5--5-5-5-5-5-5-3-3-3-3--0-0-0-0-----0--0-0-0-0-0-0-3-2-2-0---|


[Break]

Guitar 1

E|------------------------------------------|
B|--3-------6------3-------8-8-8-8-8-5-5-5--|
G|--2(x24)--5(x8)--2(x24)--7-7-7-7-7-5-5-5--|
D|------------------------------------------|
A|------------------------------------------|
D|------------------------------------------|

Guitar 2

E|-----------------------------------|
B|------1--------1--------1-------1--|
G|----2--------2--------2-------2----|
D|--0--------0--------0-------0------|
A|-----------------------------------|
D|-----------------------------------|

Build Up

Guitar 1

E|-------------------------------------|
B|-------------------------------------|
G|-------------------------------------|
D|--0-----5------8-----5--------10-----| x2
A|--0-----5------8-----5--------10-----|
D|--0-----5------8-----5--------10-----|

Guitar 2

E|--------------------------------------------------------|
B|------------------------------------5b6b5---5b6b5-------|
G|--5h7p5---------------------5h7p5---------5-------5-----|
D|---------7-5h7-5p3-3h5-7p5--------7------------------7--| x4
A|--------------------------------------------------------|
D|--------------------------------------------------------|


[Break]

E|----------------------------------------------------------------------------------|
B|---6---5-----6---5-----6----5-----6----5-----6---5----6---5-------6---5----6---5--|
G|-7---7-----7---7------------------------------------------------7---7----7---7----|
D|---------------------8---8------8---8------5---5----5---5-------------------------|
A|----------------------------------------------------------------------------------|
D|----------------------------------------------------------------------------------|


[Final Chorus]

E|---------------------------------------------------------------------------|
B|---------------------------------------------------------------------------|
G|---------------------------------------------------------------------------|
D|---------------------------------------------------------------------------|
A|--0-0-0-0--------0-0-0-0-0-0------------8-8-8-8-7-8--8-8-8-8-8-8-7---7h8---|
D|--0-0-0-0-10h12--0-0-0-0-0-0-10h12 0-0--8-8-8-8---8--8-8-8-8-8-8---8-------|

E|-------------------------------------------------------------------------|
B|-------------------------------------------------------------------------|
G|-------------------------------------------------------------------------|
D|-------------------------------------------------------------------------|
A|--5-5-5-5-8-5--5-5-5-5-5-5-3-3-3-3--0-0-0-0-3h5-0--0-0-0-0-0-0-3-2-2-0---|
D|--5-5-5-5---5--5-5-5-5-5-5-3-3-3-3--0-0-0-0-----0--0-0-0-0-0-0-3-2-2-0---|


[End]

E|---------------------------------------------------------------------------------|
B|---------------------------------------------------------------------------------|
G|---------------------------------------------------------------------------------|
D|---------------------------------------------------------------------------------|
A|------------------------------------------------------------------10-10-10-10----|
D|--0-0-0-0-10-0--0-0-0-0-0-0-10-0-0-0--0-0-0-0-10-0--0-0-0-0-0-0-0-10-10-10-10----|

E|-----------------------------------------------------------------------------|
B|-----------------------------------------------------------------------------|
G|-----------------------------------------------------------------------------|
D|------------------------------------------------------------------3-2-2-0----|
A|------------------------------------------------------------------3-2-2-0----|
D|--0-0-0-0-10-0--0-0-0-0-0-0-10-0-0-0--0-0-0-0-10-0--0-0-0-0-0-0-0-3-2-2-0----|



************************************

| x  Dead note
| h  Hammer-on
| p  Pull-off
| b  Bend 

************************************
Suggest correction
comments
print report bad tab
2 comments total.
+1 reply
geneva0309 10 Jan 22, 2016 01:26 PM

Good job!~

+1 reply
BeDrums 10 May 07, 2016 06:06 PM

Great tab man! Greetings from Chile

guest
You may want to rate the tab now too:
select rating
Wanna post a correction for this tab? Suggest correction