Oops, an error
Loading. Please wait.

What You Need tab

version 1
version 1

Whole song

Interactive

4,554 views 21 this week
no commentswrite comment
1 2 3 4 5
x 8
add to favorites
×
Save as Personal and add changes to this tab that will be seen only by you. Learn more ›
×
You can save this tab as Personal to edit and correct it or add notes. All changes will be seen only by you. Learn more »
launch autoscroll
font size
0
reset
how to read this tab
guitar tuner
edit
Autoscroll
slow
fast
+/-
esc
set tempo
stop
What You Need - Bring Me The Horizon
Tuning: Drop B (B F# B E G# C#)

[Intro]

Lead (sweep picked, fades in)
C#|-----------------------------------------------------------------------------------------|
G#|-----------------------------------------------------------------------------------------|
 E|-16-16-16-16-16-16-16-16-16-16-16-16-16-16-16-16-16-16-16-16-16-16-16-16-7-7-7-7-7-7-7-7-|
 B|-----------------------------------------------------------------------------------------| x14
F#|-----------------------------------------------------------------------------------------|
 B|-----------------------------------------------------------------------------------------|

Rhythm (comes in after x3 of the lead riff)
C#|----------------------------|
G#|---------------------0-0-0--|
 E|-4-4-2-4-4-4-4--------------|
 B|---------------0-0-0--------| x11 
F#|----------------------------|
 B|----------------------------|


[Pre Chorus]

Lead (sweep picked, fades in)
C#|-----------------------------------------------------------------------------------------|
G#|-----------------------------------------------------------------------------------------|
 E|-16-16-16-16-16-16-16-16-16-16-16-16-16-16-16-16-16-16-16-16-16-16-16-16-7-7-7-7-7-7-7-7-|
 B|-----------------------------------------------------------------------------------------| x14
F#|-----------------------------------------------------------------------------------------|
 B|-----------------------------------------------------------------------------------------|

Rhythm (comes in after x3 of the lead riff)
C#|----------------------------|
G#|---------------------0-0-0--|
 E|-4-4-2-4-4-4-4--------------|
 B|---------------0-0-0--------| x11 
F#|----------------------------|
 B|----------------------------|


[Chorus]

Lead
C#|-------17---15----14-|
G#|-12-12---12----12----|
 E|---------------------|
 B|---------------------| x8
F#|---------------------|
 B|---------------------|

Rhythm
C#|------------------------------------------------------------------|
G#|------------------------------------------------------------------|
 E|------------------------------------------------------------------|
 B|-9-9-9-9-9-9-9-9-9-9-9-9-5-5-5-5--7-7-7-7-7-7-7-7-7-7-7-7-0-0-0-0-|
F#|-9-9-9-9-9-9-9-9-9-9-9-9-5-5-5-5--7-7-7-7-7-7-7-7-7-7-7-7-0-0-0-0-|
 B|-9-9-9-9-9-9-9-9-9-9-9-9-5-5-5-5--7-7-7-7-7-7-7-7-7-7-7-7-0-0-0-0-|

C#|------------------------------------------------------------------|
G#|------------------------------------------------------------------|
 E|------------------------------------------------------------------|
 B|-2-2-2-2-2-2-2-2-2-2-2-2-0-0-0-0--5-5-5-5-5-5-5-5-5-5-5-5-7-7-7-7-|
F#|-2-2-2-2-2-2-2-2-2-2-2-2-0-0-0-0--5-5-5-5-5-5-5-5-5-5-5-5-7-7-7-7-|
 B|-2-2-2-2-2-2-2-2-2-2-2-2-0-0-0-0--5-5-5-5-5-5-5-5-5-5-5-5-7-7-7-7-|


[Post Chorus]
("and you'll see it, you'll see it, you'll see it when you believe")

Lead & Rhythm
C#|--------------------------------------------------------------|
G#|--------------------------------------------------------------|
 E|--------------------------------------------------------------|
 B|-9-9-7-9-9-9-9-0-0-0-0-5-5-5-5--9-9-7-9-9-9-9-0-0-0-0-2-2-2-2-|
F#|-9-9-7-9-9-9-9-0-0-0-0-5-5-5-5--9-9-7-9-9-9-9-0-0-0-0-2-2-2-2-|
 B|-9-9-7-9-9-9-9-0-0-0-0-5-5-5-5--9-9-7-9-9-9-9-0-0-0-0-2-2-2-2-|


C#|--------------------------------------------------------|
G#|--------------------------------------------------------|
 E|--------------------------------------------------------|
 B|-9-9-7-9-9-9-9-0-0-0-0-5-5-5-5--2-2-2-2-2-2-2-2-2-2-2-2-|
F#|-9-9-7-9-9-9-9-0-0-0-0-5-5-5-5--2-2-2-2-2-2-2-2-2-2-2-2-| 
 B|-9-9-7-9-9-9-9-0-0-0-0-5-5-5-5--2-2-2-2-2-2-2-2-2-2-2-2-|


[Verse 2]

Lead
C#|---------------------------------------------|
G#|---------------------------------------------|
 E|-16-16-16-16-16-16-16-16-16-16-16-16-7-7-7-7-|
 B|---------------------------------------------| x8
F#|---------------------------------------------|
 B|---------------------------------------------|

Rhythm
C#|----------------------------|
G#|---------------------0-0-0--|
 E|-4-4-2-4-4-4-4--------------|
 B|---------------0-0-0--------| x8
F#|----------------------------|
 B|----------------------------|


[Pre Chorus 2]
("don't come crawling back to me...")

Lead
C#|-----5--------5--------5--------5---|
G#|-------7--------7--------7--------7-|
 E|-4-4------6-6------4-4------4-4-----|
 B|------------------------------------| x3
F#|------------------------------------|
 B|------------------------------------|

C#|-----5--------5-|
G#|-------7--------|
 E|-4-4------4-4---|
 B|----------------| 
F#|----------------|
 B|----------------|

Rhythm
C#|-----------------------------------------------------------------|
G#|-----------------------------------------------------------------|
 E|-----------------------------------------------------------------|
 B|-5-5-5-5-5-5-5-5-7-7-7-7-7-7-7-7-9-9-9-9-9-9-9-9-9-9-9-9-9-9-9-9-| x3
F#|-5-5-5-5-5-5-5-5-7-7-7-7-7-7-7-7-9-9-9-9-9-9-9-9-9-9-9-9-9-9-9-9-|
 B|-5-5-5-5-5-5-5-5-7-7-7-7-7-7-7-7-9-9-9-9-9-9-9-9-9-9-9-9-9-9-9-9-|

then

C#|-------------------------|
G#|-------------------------|
 E|-------------------------|
 B|-5-5-5-5-5-5-5-5-7-7-7-7-|
F#|-5-5-5-5-5-5-5-5-7-7-7-7-|
 B|-5-5-5-5-5-5-5-5-7-7-7-7-|


[Chorus]

Lead
C#|-------17---15----14-|
G#|-12-12---12----12----|
 E|---------------------|
 B|---------------------| x8
F#|---------------------|
 B|---------------------|

Rhythm
C#|------------------------------------------------------------------|
G#|------------------------------------------------------------------|
 E|------------------------------------------------------------------|
 B|-9-9-9-9-9-9-9-9-9-9-9-9-5-5-5-5--7-7-7-7-7-7-7-7-7-7-7-7-0-0-0-0-|
F#|-9-9-9-9-9-9-9-9-9-9-9-9-5-5-5-5--7-7-7-7-7-7-7-7-7-7-7-7-0-0-0-0-|
 B|-9-9-9-9-9-9-9-9-9-9-9-9-5-5-5-5--7-7-7-7-7-7-7-7-7-7-7-7-0-0-0-0-|

C#|------------------------------------------------------------------|
G#|------------------------------------------------------------------|
 E|------------------------------------------------------------------|
 B|-2-2-2-2-2-2-2-2-2-2-2-2-0-0-0-0--5-5-5-5-5-5-5-5-5-5-5-5-7-7-7-7-|
F#|-2-2-2-2-2-2-2-2-2-2-2-2-0-0-0-0--5-5-5-5-5-5-5-5-5-5-5-5-7-7-7-7-|
 B|-2-2-2-2-2-2-2-2-2-2-2-2-0-0-0-0--5-5-5-5-5-5-5-5-5-5-5-5-7-7-7-7-|


[Post Chorus]

Lead+rhythm
C#|--------------------------------------------------------------|
G#|--------------------------------------------------------------|
 E|--------------------------------------------------------------|
 B|-9-9-7-9-9-9-9-0-0-0-0-5-5-5-5--9-9-7-9-9-9-9-0-0-0-0-2-2-2-2-|
F#|-9-9-7-9-9-9-9-0-0-0-0-5-5-5-5--9-9-7-9-9-9-9-0-0-0-0-2-2-2-2-|
 B|-9-9-7-9-9-9-9-0-0-0-0-5-5-5-5--9-9-7-9-9-9-9-0-0-0-0-2-2-2-2-|

C#|--------------------------------------------------------|
G#|--------------------------------------------------------|
 E|--------------------------------------------------------|
 B|-9-9-7-9-9-9-9-0-0-0-0-5-5-5-5--2-2-2-2-2-2-2-2-2-2-2-2-|
F#|-9-9-7-9-9-9-9-0-0-0-0-5-5-5-5--2-2-2-2-2-2-2-2-2-2-2-2-| 
 B|-9-9-7-9-9-9-9-0-0-0-0-5-5-5-5--2-2-2-2-2-2-2-2-2-2-2-2-|


[Bridge]
("yeah, hell yeah, you make me wanna...")

Lead & Rhythm
C#|--------------------------------------------------------------|
G#|--------------------------------------------------------------|
 E|--------------------------------------------------------------|
 B|--------------------------------------------------------------|
F#|--------------------------------------------------------------|
 B|-9-9-7-9-9-9-9-0-0-0-0-5-5-5-5--9-9-7-9-9-9-9-0-0-0-0-2-2-2-2-|

C#|--------------------------------------------------------|
G#|--------------------------------------------------------|
 E|--------------------------------------------------------|
 B|--------------------------------------------------------|
F#|--------------------------------------------------------| x4
 B|-9-9-7-9-9-9-9-0-0-0-0-5-5-5-5--2-2-2-2-2-2-2-2-2-2-2-2-|
 

[Solo]

Lead
C#|-------------------------------------------------------------|
G#|-------------------------------------------------------------|
 E|-------14/16/14-------14/16/14-------14/16/14-9b-9b-9b-9b-9b-|
 B|-9-9-9----------9-9-9----------9-9-9-------------------------|
F#|-------------------------------------------------------------|
 B|-------------------------------------------------------------|

C#|----------------------------------------------------------------|
G#|--------------------------------------------------------12b-15b-|
 E|-9b-9b-9b-------14/16/14--------14/16/14-------14/16/14---------|
 B|----------9-9-9-----------9-9-9----------9-9-9------------------|
F#|----------------------------------------------------------------|
 B|----------------------------------------------------------------|

Rhythm
C#|--------------------------------------------------------------|
G#|--------------------------------------------------------------|
 E|--------------------------------------------------------------|
 B|-9-9-7-9-9-9-9-0-0-0-0-5-5-5-5--9-9-7-9-9-9-9-0-0-0-0-2-2-2-2-|
F#|-9-9-7-9-9-9-9-0-0-0-0-5-5-5-5--9-9-7-9-9-9-9-0-0-0-0-2-2-2-2-| 
 B|-9-9-7-9-9-9-9-0-0-0-0-5-5-5-5--9-9-7-9-9-9-9-0-0-0-0-2-2-2-2-|

C#|--------------------------------------------------------|
G#|--------------------------------------------------------|
 E|--------------------------------------------------------|
 B|-9-9-7-9-9-9-9-0-0-0-0-5-5-5-5--2-2-2-2-2-2-2-2-2-2-2-2-|
F#|-9-9-7-9-9-9-9-0-0-0-0-5-5-5-5--2-2-2-2-2-2-2-2-2-2-2-2-| 
 B|-9-9-7-9-9-9-9-0-0-0-0-5-5-5-5--2-2-2-2-2-2-2-2-2-2-2-2-|


[Final Chorus]

Lead
C#|-------------------------|          |-12b-12b-|
G#|-12-12-12-12-12-12-12-12-|          |-12b-10b-|
 E|-------------------------|          |---------|
 B|-------------------------| x10 then |---------|
F#|-------------------------|          |---------|
 B|-------------------------|          |---------|

Rhythm
C#|--------------------------------------------------------------|
G#|--------------------------------------------------------------|
 E|--------------------------------------------------------------|
 B|-9-9-7-9-9-9-9-0-0-0-0-5-5-5-5--9-9-7-9-9-9-9-0-0-0-0-2-2-2-2-|
F#|-9-9-7-9-9-9-9-0-0-0-0-5-5-5-5--9-9-7-9-9-9-9-0-0-0-0-2-2-2-2-|
 B|-9-9-7-9-9-9-9-0-0-0-0-5-5-5-5--9-9-7-9-9-9-9-0-0-0-0-2-2-2-2-|

C#|--------------------------------------------------------|
G#|--------------------------------------------------------|
 E|--------------------------------------------------------|
 B|-9-9-7-9-9-9-9-0-0-0-0-5-5-5-5--2-2-2-2-2-2-2-2-2-2-2-2-|
F#|-9-9-7-9-9-9-9-0-0-0-0-5-5-5-5--2-2-2-2-2-2-2-2-2-2-2-2-|
 B|-9-9-7-9-9-9-9-0-0-0-0-5-5-5-5--2-2-2-2-2-2-2-2-2-2-2-2-|

C#|--------------------------------------------------------|
G#|--------------------------------------------------------|
 E|--------------------------------------------------------|
 B|-2-2-2-2-2-2-2-2-2-2-2-2-2-2-2-2-2-2-2-2--2--9--9--0--9-|
F#|-2-2-2-2-2-2-2-2-2-2-2-2-2-2-2-2-2-2-2-2--2--9--9--0--9-| 
 B|-2-2-2-2-2-2-2-2-2-2-2-2-2-2-2-2-2-2-2-2--2--9--9--0--9-|

*********
b = bend
/ = slide
*********

            
            
Show proposed correction Suggest correction
Creating personal tab
Creating personal tab
You can edit any tab online and save it as your Personal.

You can edit, replace or remove any tab part or add personal notes – all changes will be seen only by you.

Personal tabs can be accessed anytime from any device, even offline.
Learn more »
comments
print report bad tab
guest
You may want to rate the tab now too:
select rating
Wanna post a correction for this tab? Suggest correction