Oops, an error
Loading. Please wait.

Jamaican Boy Bass Tab

256 views 1 this week
no commentswrite comment
1 2 3 4 5
3 more votes to show rating
add to favorites
launch autoscroll
font size
0
reset
guitar tuner
Autoscroll
slow
fast
+/-
esc
set tempo
stop
Help us to improve Ultimate-Guitar.com Take our survey!
×
Author
Title: Jamaïcan Boy
Artist: brisa Roché
Album: 
Author: Bost and Beam


c est un essai, ma premiere tab envoyee, soyez indulgents mais n'hesitez pas a m 
envoyer vos observations

G|------------------------------|------------------------------|---------------------------------|
D|-------------9----------------|------------------------------|---------------------------------|
A|-7---7---10-----------X---10--|---------7---10-------X-------|-------------7-------7-----------|
E|------------------------------|-8---8--------------------8---|-5---5---8---------------8---X---|


G|---------------------------------|
D|-------------7-------7---5-------|
A|---------7-------------------7---|
E|-5---8---------------------------|


Olivier, Nantes
Suggest correction
Give kudos to tab author, rate the tab!
1 2 3 4 5
comments
print report bad tab
guest
You may want to rate the tab now too:
select rating
Wanna post a correction for this tab? Suggest correction